Oops, an error
Loading. Please wait.

Juneau Tab

ver5
ver5
More versions @911Tabs.com
4,147 views 21 this week
1 commentread comment
1 2 3 4 5
excellent!
x 5
Autoscroll
+/-
esc
set tempo
stop
Contributor
Difficulty
Tuning
novice
C# G# C# F# A# D#
Hey! There's an official Ultimate Guitar app which is ideal
for learning songs when you're away from computer. Get the app
WARNING: You are trying to view
                                    content from Ultimate-Guitar.com
                                    in an unauthorized application,
                                    which is prohibited.

                                    Please use an official Ultimate
                                    Guitar Tabs application for iPhone,
                                    iPad or Android to access legitimate
                                    chords, guitar, bass, and drum tabs
                                    from Ultimate-Guitar.com database.

                                    Type "ultimate guitar tabs" in Apple
                                    App Store's or Android Market's
                                    search to find the application.
-------------------------------------------------------------------------------
                     Juneau BY Funeral For A Friend
-------------------------------------------------------------------------------
Tabbed by:jealous_minds
Email: reece.goddard@hotmail.com

Tuning:C# G# C# F# A# D# (low to high)

Approx. 107bpm

This is Kris Coombs - Roberts' part.

Clean

 1  S  S  S  S  S  S  S  S  S  S  S  S  S  S  S  S
D#|-------------------------------------------------|
A#|-------------------------R-----------------------|
F#|-12-12-12-12-12-12-12-12-E--12-12-12-12-12-12-12-|
C#|-10-10-10-10-10-10-10-10-S--10-10-10-10-10-10-10-|
G#|-8--8--8--8--8--8--8--8--T--8--8--8--8--8--8--8--|
C#|-------------------------------------------------|
 2  S  S  S  S  S  S  S  S  S  S  S  S  S  S  S  S
D#|-------------------------------------------------|
A#|-R-----------------------R-----------------------|
F#|-E-12-12-12-12-12-12-12--E--12-12-12-12-12-12-12-|
C#|-S-10-10-10-10-10-10-10--S--10-10-10-10-10-10-10-|
G#|-T-8--8--8--8--8--8--8---T--8--8--8--8-/10-10-10-|
C#|-------------------------------------------------|
 3  S  S  S  S  S  S  S  S  S  S  S  S  S  S  S  S
D#|-------------------------------------------------|
A#|-R-----------------------R-----------------------|
F#|-E-12-12-12-12-12-12-12--E--10-10-10-10-10-10-10-|
C#|-S-10-10-10-10-10-10-10--S--10-10-10-10-10-10-10-|
G#|-T-12-12-12-12-12-12-12--T--12-12-12-12-12-12-12-|
C#|-------------------------------------------------|
                              *Turn on Distortion  
 4 S  S  S  S  S  S  S  S   Q    Q      
D#|----------------------------------|
A#|-R--------------------------------|
F#|-E-9--9--9--9--9--9--9--12--------|
C#|-S-10-10-10-10-10-10-10-10---10\--|
G#|-T-12-12-12-12-12-12-12-10---10\--|
C#|-----------------------------10\--|
 5  S  S  S  S  S  S  S  S  S  S  S  S  S  S  S  S
D#|-------------------------------------------------|
A#|-------------------------R-----------------------|
F#|-5--5--5--5--5--5--5--5--E--5--5--5--5--5--5--5--|
C#|-3--3--3--3--3--3--3--3--S--3--3--3--3--3--3--3--|
G#|-3--3--3--3--3--3--3--3--T--3--3--3--3--3--3--3--|
C#|-3--3--3--3--3--3--3--3-----3--3--3--3--3--3--3--|
 6  S  S  S  S  S  S  S  S  S  S  S  S  S  S  S  S
D#|-------------------------------------------------|
A#|-R-----------------------R-----------------------|
F#|-E--5--5--5--5--5--5--5--E--5--5--5--5/-7--7--7--|
C#|-S--3--3--3--3--3--3--3--S--3--3--3--3/-5--5--5--|
G#|-T--3--3--3--3--3--3--3--T--3--3--3--3/-5--5--5--|
C#|----3--3--3--3--3--3--3-----3--3--3--3/-5--5--5--|
 7  S  S  S  S  S  S  S  S  S  S  S  S  S  S  S  S
D#|-------------------------------------------------|
A#|-------------------------R-----------------------|
F#|-------------------------E-----------------------|
C#|-9--9--9--9--9--9--9--9--S--10-10-10-10-10-10-10-|
G#|-7--7--7--7--7--7--7--7--T--7--7--7--7--7--7--7--|
C#|-7--7--7--7--7--7--7--7-----7--7--7--7--7--7--7--|
 8   S  S  S  S  S  S  S  S  S  S  S  S  S  S  S  S
D#|-------------------------------------------------|
A#|-------------------------R-----------------------|
F#|-------------------------E-----------------------|
C#|-9--9--9--9--9--9--9--9--S--5--5--5--5--5--5--5--|
G#|-7--7--7--7--7--7--7--7--T--5--5--5--5--5--5--5--|
C#|-7--7--7--7--7--7--7--7-----5--5--5--5--5--5--5--|
 9  S  S  S  S  S  S  S  S  S  S  S  S  S  S  S  S
D#|-------------------------------------------------|
A#|-------------------------R-----------------------|
F#|-5--5--5--5--5--5--5--5--E--5--5--5--5--5--5--5--|
C#|-3--3--3--3--3--3--3--3--S--3--3--3--3--3--3--3--|
G#|-3--3--3--3--3--3--3--3--T--3--3--3--3--3--3--3--|
C#|-3--3--3--3--3--3--3--3-----3--3--3--3--3--3--3--|
10  S  S  S  S  S  S  S  S  S  S  S  S  S  S  S  S
D#|-------------------------------------------------|
A#|-R-----------------------R-----------------------|
F#|-E--5--5--5--5--5--5--5--E--5--5--5--5/-7--7--7--|
C#|-S--3--3--3--3--3--3--3--S--3--3--3--3/-5--5--5--|
G#|-T--3--3--3--3--3--3--3--T--3--3--3--3/-5--5--5--|
C#|----3--3--3--3--3--3--3-----3--3--3--3/-5--5--5--|
11  S  S  S  S  S  S  S  S  S  S  S  S  S  S  S  S
D#|-------------------------------------------------|
A#|-------------------------R-----------------------|
F#|-------------------------E-----------------------|
C#|-9--9--9--9--9--9--9--9--S--10-10-10-10-10-10-10-|
G#|-7--7--7--7--7--7--7--7--T--7--7--7--7--7--7--7--|
C#|-7--7--7--7--7--7--7--7-----7--7--7--7--7--7--7--|
12   S  S  S  S  S  S  S  S  S  S  S  S  S  S  S  S
D#|-------------------------------------------------|
A#|-------------------------R-----------------------|
F#|-------------------------E-----------------------|
C#|-9--9--9--9--9--9--9--9--S--5--5--5--5--5--5--5--|
G#|-7--7--7--7--7--7--7--7--T--5--5--5--5--5--5--5--|
C#|-7--7--7--7--7--7--7--7-----5--5--5--5--5--5--5--|
13  S  S  S  S  S  S  S  S  S  S  S  S  S  S  S  S
D#|-------------------------------------------------|
A#|-------------------------R-----------------------|
F#|-5--5--5--5--5--5--5--5--E--5--5--5--5--5--5--5--|
C#|-3--3--3--3--3--3--3--3--S--3--3--3--3--3--3--3--|
G#|-3--3--3--3--3--3--3--3--T--3--3--3--3--3--3--3--|
C#|-3--3--3--3--3--3--3--3-----3--3--3--3--3--3--3--|
14  S  S  S  S  S  S  S  S  S  S  S  S  S  S  S  S
D#|-------------------------------------------------|
A#|-R-----------------------R-----------------------|
F#|-E--5--5--5--5--5--5--5--E--5--5--5--5/-7--7--7--|
C#|-S--3--3--3--3--3--3--3--S--3--3--3--3/-5--5--5--|
G#|-T--3--3--3--3--3--3--3--T--3--3--3--3/-5--5--5--|
C#|----3--3--3--3--3--3--3-----3--3--3--3/-5--5--5--|
15  S  S  S  S  S  S  S  S  S  S  S  S  S  S  S  S
D#|-------------------------------------------------|
A#|-------------------------R-----------------------|
F#|-------------------------E-----------------------|
C#|-9--9--9--9--9--9--9--9--S--10-10-10-10-10-10-10-|
G#|-7--7--7--7--7--7--7--7--T--7--7--7--7--7--7--7--|
C#|-7--7--7--7--7--7--7--7-----7--7--7--7--7--7--7--|
16   S  S  S  S  S  S  S  S  S  S  S  S  S  S  S  S
D#|-------------------------------------------------|
A#|-------------------------R-----------------------|
F#|-------------------------E-----------------------|
C#|-9--9--9--9--9--9--9--9--S--5--5--5--5--5--5--5--|
G#|-7--7--7--7--7--7--7--7--T--5--5--5--5--5--5--5--|
C#|-7--7--7--7--7--7--7--7-----5--5--5--5--5--5--5--|
17  S  S  S  S  S  S  S  S  S  S  S  S  S  S  S  S
D#|-------------------------------------------------|
A#|-------------------------R-----------------------|
F#|-5--5--5--5--5--5--5--5--E--5--5--5--5--5--5--5--|
C#|-3--3--3--3--3--3--3--3--S--3--3--3--3--3--3--3--|
G#|-3--3--3--3--3--3--3--3--T--3--3--3--3--3--3--3--|
C#|-3--3--3--3--3--3--3--3-----3--3--3--3--3--3--3--|
18  S  S  S  S  S  S  S  S  S  S  S  S  S  S  S  S
D#|-------------------------------------------------|
A#|-R-----------------------R-----------------------|
F#|-E--5--5--5--5--5--5--5--E--5--5--5--5/-7--7--7--|
C#|-S--3--3--3--3--3--3--3--S--3--3--3--3/-5--5--5--|
G#|-T--3--3--3--3--3--3--3--T--3--3--3--3/-5--5--5--|
C#|----3--3--3--3--3--3--3-----3--3--3--3/-5--5--5--|
19  S  S  S  S  S  S  S  S  S  S  S  S  S  S  S  S
D#|-------------------------------------------------|
A#|-------------------------R-----------------------|
F#|-------------------------E-----------------------|
C#|-9--9--9--9--9--9--9--9--S--10-10-10-10-10-10-10-|
G#|-7--7--7--7--7--7--7--7--T--7--7--7--7--7--7--7--|
C#|-7--7--7--7--7--7--7--7-----7--7--7--7--7--7--7--|
20   S  S  S  S  S  S  S  S  S  S  S  S  S  S  S  S
D#|-------------------------------------------------|
A#|-------------------------R-----------------------|
F#|-------------------------E-----------------------|
C#|-9--9--9--9--9--9--9--9--S--5--5--5--5--5--5--5--|
G#|-7--7--7--7--7--7--7--7--T--5--5--5--5--5--5--5--|
C#|-7--7--7--7--7--7--7--7-----5--5--5--5--5--5--5--|
21  W
D#|-------------------------------------------------|
A#|-R-----------------------------------------------|
F#|-E-----------------------------------------------|
C#|-S-----------------------------------------------|
G#|-T-----------------------------------------------|
C#|-------------------------------------------------|
22  S  S  S  S  S  S  S  S  S  S  S  S  S  S  S  S  
D#|-------------------------------------------------|
A#|-------------------------------------------------|
F#|-------5-----4-p0--------------5-----4-p0--------|
C#|----------------------5-----------------------5--|
G#|-------------------------------------------------|
C#|-3--3-----3--------3-----3--3-----3--------3-----|
  pm.  .     .        .     .  .     .        .
23  S  S  S  S  S  S  S  S  S  S  S  S  S  S  S  S  
D#|-------------------------------------------------|
A#|-------------------------------------------------|
F#|-------5-----4-p0--------------5-----4-p0--------|
C#|----------------------5-----------------------5--|
G#|-------------------------------------------------|
C#|-3--3-----3--------3-----3--3-----3--------3-----|
  pm.  .     .        .     .  .     .        .
24  S  S  S  S  S  S  S  S  S  S  S  S  S  S  S  S  
D#|-------------------------------------------------|
A#|-------------------------------------------------|
F#|-------5-----4-p0--------------5-----4-p0--------|
C#|----------------------5-----------------------5--|
G#|-0--0-----0--------0-----0--0-----0--------0-----|
C#|-------------------------------------------------|
  pm.  .     .        .     .  .     .        .
25  S  S  S  S  S  S  S  S  S  S  S  S  S  S  S  S  
D#|-------------------------------------------------|
A#|-------------------------------------------------|
F#|-------5-----4-p0--------------5-----4-p0--------|
C#|----------------------5-----------------------5--|
G#|-0--0-----0--------0-----0--0-----0--------0-----|
C#|-------------------------------------------------|
  pm.  .     .        .     .  .     .        .
26  S  S  S  S  S  S  S  S  S  S  S  S  S  S  S  S  
D#|-------------------------------------------------|
A#|-------------------------------------------------|
F#|-------5-----4-p0--------------5-----4-p0--------|
C#|----------------------5-----------------------5--|
G#|-------------------------------------------------|
C#|-3--3-----3--------3-----3--3-----3--------3-----|
  pm.  .     .        .     .  .     .        .
27  S  S  S  S  S  S  S  S  S  S  S  S  S  S  S  S  
D#|-------------------------------------------------|
A#|-------------------------------------------------|
F#|-------5-----4-p0--------------5-----4-p0--------|
C#|----------------------5-----------------------5--|
G#|-------------------------------------------------|
C#|-3--3-----3--------3-----3--3-----3--------3-----|
  pm.  .     .        .     .  .     .        .
28  S  S  S  S  S  S  S  S  S  S  S  S  S  S  S  S  
D#|-------------------------------------------------|
A#|-------------------------------------------------|
F#|-------5-----4-p0--------------5-----4-p0--------|
C#|----------------------5-----------------------5--|
G#|-0--0-----0--------0-----0--0-----0--------0-----|
C#|-------------------------------------------------|
  pm.  .     .        .     .  .     .        .
29  S  S  S  S  S  S  S  S  S  S  S  S  S  S  S  S  
D#|-------------------------------------------------|
A#|-------------------------------------------------|
F#|-------5-----4-p0--------------5-----4-p0--------|
C#|----------------------5-----------------------5--|
G#|-0--0-----0--------0-----0--0-----0--------0-----|
C#|-------------------------------------------------|
  pm.  .     .        .     .  .     .        .
30  S  S  S  S  S  S  S  S  S  S  S  S  S  S  S  S
D#|-------------------------------------------------|
A#|-------------------------R-----------------------|
F#|-5--5--5--5--5--5--5--5--E--5--5--5--5--5--5--5--|
C#|-3--3--3--3--3--3--3--3--S--3--3--3--3--3--3--3--|
G#|-3--3--3--3--3--3--3--3--T--3--3--3--3--3--3--3--|
C#|-3--3--3--3--3--3--3--3-----3--3--3--3--3--3--3--|
31  S  S  S  S  S  S  S  S  S  S  S  S  S  S  S  S
D#|-------------------------------------------------|
A#|-R-----------------------R-----------------------|
F#|-E--5--5--5--5--5--5--5--E--5--5--5--5/-7--7--7--|
C#|-S--3--3--3--3--3--3--3--S--3--3--3--3/-5--5--5--|
G#|-T--3--3--3--3--3--3--3--T--3--3--3--3/-5--5--5--|
C#|----3--3--3--3--3--3--3-----3--3--3--3/-5--5--5--|
32  S  S  S  S  S  S  S  S  S  S  S  S  S  S  S  S
D#|-------------------------------------------------|
A#|-------------------------R-----------------------|
F#|-------------------------E-----------------------|
C#|-9--9--9--9--9--9--9--9--S--10-10-10-10-10-10-10-|
G#|-7--7--7--7--7--7--7--7--T--7--7--7--7--7--7--7--|
C#|-7--7--7--7--7--7--7--7-----7--7--7--7--7--7--7--|
33   S  S  S  S  S  S  S  S  S  S  S  S  S  S  S  S
D#|-------------------------------------------------|
A#|-------------------------R-----------------------|
F#|-------------------------E-----------------------|
C#|-9--9--9--9--9--9--9--9--S--5--5--5--5--5--5--5--|
G#|-7--7--7--7--7--7--7--7--T--5--5--5--5--5--5--5--|
C#|-7--7--7--7--7--7--7--7-----5--5--5--5--5--5--5--|
34  S  S  S  S  S  S  S  S  S  S  S  S  S  S  S  S
D#|-------------------------------------------------|
A#|-------------------------R-----------------------|
F#|-5--5--5--5--5--5--5--5--E--5--5--5--5--5--5--5--|
C#|-3--3--3--3--3--3--3--3--S--3--3--3--3--3--3--3--|
G#|-3--3--3--3--3--3--3--3--T--3--3--3--3--3--3--3--|
C#|-3--3--3--3--3--3--3--3-----3--3--3--3--3--3--3--|
35  S  S  S  S  S  S  S  S  S  S  S  S  S  S  S  S
D#|-------------------------------------------------|
A#|-R-----------------------R-----------------------|
F#|-E--5--5--5--5--5--5--5--E--5--5--5--5/-7--7--7--|
C#|-S--3--3--3--3--3--3--3--S--3--3--3--3/-5--5--5--|
G#|-T--3--3--3--3--3--3--3--T--3--3--3--3/-5--5--5--|
C#|----3--3--3--3--3--3--3-----3--3--3--3/-5--5--5--|
36  S  S  S  S  S  S  S  S  S  S  S  S  S  S  S  S
D#|-------------------------------------------------|
A#|-------------------------R-----------------------|
F#|-------------------------E-----------------------|
C#|-9--9--9--9--9--9--9--9--S--10-10-10-10-10-10-10-|
G#|-7--7--7--7--7--7--7--7--T--7--7--7--7--7--7--7--|
C#|-7--7--7--7--7--7--7--7-----7--7--7--7--7--7--7--|
37   S  S  S  S  S  S  S  S  S  S  S  S  S  S  S  S
D#|-------------------------------------------------|
A#|-------------------------R-----------------------|
F#|-------------------------E-----------------------|
C#|-9--9--9--9--9--9--9--9--S--5--5--5--5--5--5--5--|
G#|-7--7--7--7--7--7--7--7--T--5--5--5--5--5--5--5--|
C#|-7--7--7--7--7--7--7--7-----5--5--5--5--5--5--5--|
38  S  S  S  S  S  S  S  S  S  S  S  S  S  S  S  S
D#|-------------------------------------------------|
A#|-------------------------R-----------------------|
F#|-5--5--5--5--5--5--5--5--E--5--5--5--5--5--5--5--|
C#|-3--3--3--3--3--3--3--3--S--3--3--3--3--3--3--3--|
G#|-3--3--3--3--3--3--3--3--T--3--3--3--3--3--3--3--|
C#|-3--3--3--3--3--3--3--3-----3--3--3--3--3--3--3--|
39  S  S  S  S  S  S  S  S  S  S  S  S  S  S  S  S
D#|-------------------------------------------------|
A#|-R-----------------------R-----------------------|
F#|-E--5--5--5--5--5--5--5--E--5--5--5--5/-7--7--7--|
C#|-S--3--3--3--3--3--3--3--S--3--3--3--3/-5--5--5--|
G#|-T--3--3--3--3--3--3--3--T--3--3--3--3/-5--5--5--|
C#|----3--3--3--3--3--3--3-----3--3--3--3/-5--5--5--|
40  S  S  S  S  S  S  S  S  S  S  S  S  S  S  S  S
D#|-------------------------------------------------|
A#|-------------------------R-----------------------|
F#|-------------------------E-----------------------|
C#|-9--9--9--9--9--9--9--9--S--10-10-10-10-10-10-10-|
G#|-7--7--7--7--7--7--7--7--T--7--7--7--7--7--7--7--|
C#|-7--7--7--7--7--7--7--7-----7--7--7--7--7--7--7--|
41   S  S  S  S  S  S  S  S  S  S  S  S  S  S  S  S
D#|-------------------------------------------------|
A#|-------------------------R-----------------------|
F#|-------------------------E-----------------------|
C#|-9--9--9--9--9--9--9--9--S--5--5--5--5--5--5--5--|
G#|-7--7--7--7--7--7--7--7--T--5--5--5--5--5--5--5--|
C#|-7--7--7--7--7--7--7--7-----5--5--5--5--5--5--5--|
42  S  S  S  S  S  S  S  S  S  S  S  S  S  S  S  S
D#|-------------------------------------------------|
A#|-------------------------R-----------------------|
F#|-5--5--5--5--5--5--5--5--E--5--5--5--5--5--5--5--|
C#|-3--3--3--3--3--3--3--3--S--3--3--3--3--3--3--3--|
G#|-3--3--3--3--3--3--3--3--T--3--3--3--3--3--3--3--|
C#|-3--3--3--3--3--3--3--3-----3--3--3--3--3--3--3--|
43  S  S  S  S  S  S  S  S  S  S  S  S  S  S  S  S
D#|-------------------------------------------------|
A#|-R-----------------------R-----------------------|
F#|-E--5--5--5--5--5--5--5--E--5--5--5--5/-7--7--7--|
C#|-S--3--3--3--3--3--3--3--S--3--3--3--3/-5--5--5--|
G#|-T--3--3--3--3--3--3--3--T--3--3--3--3/-5--5--5--|
C#|----3--3--3--3--3--3--3-----3--3--3--3/-5--5--5--|
44  S  S  S  S  S  S  S  S  S  S  S  S  S  S  S  S
D#|-------------------------------------------------|
A#|-------------------------R-----------------------|
F#|-------------------------E-----------------------|
C#|-9--9--9--9--9--9--9--9--S--10-10-10-10-10-10-10-|
G#|-7--7--7--7--7--7--7--7--T--7--7--7--7--7--7--7--|
C#|-7--7--7--7--7--7--7--7-----7--7--7--7--7--7--7--|
45   S  S  S  S  S  S  S  S  S  S  S  S  S  S  S  S
D#|-------------------------------------------------|
A#|-------------------------R-----------------------|
F#|-------------------------E-----------------------|
C#|-9--9--9--9--9--9--9--9--S--5--5--5--5--5--5--5--|
G#|-7--7--7--7--7--7--7--7--T--5--5--5--5--5--5--5--|
C#|-7--7--7--7--7--7--7--7-----5--5--5--5--5--5--5--|
46  W
D#|-------------------------------------------------|
A#|-R-----------------------------------------------|
F#|-E-----------------------------------------------|
C#|-S-----------------------------------------------|
G#|-T-----------------------------------------------|
C#|-------------------------------------------------|
47  W
D#|-------------------------------------------------|
A#|-R-----------------------------------------------|
F#|-E-----------------------------------------------|
C#|-S-----------------------------------------------|
G#|-T-----------------------------------------------|
C#|-------------------------------------------------|
48  W
D#|-------------------------------------------------|
A#|-R-----------------------------------------------|
F#|-E-----------------------------------------------|
C#|-S-----------------------------------------------|
G#|-T-----------------------------------------------|
C#|-------------------------------------------------|
49  W
D#|-------------------------------------------------|
A#|-R-----------------------------------------------|
F#|-E-----------------------------------------------|
C#|-S-----------------------------------------------|
G#|-T-----------------------------------------------|
C#|-------------------------------------------------|
50  W
D#|-------------------------------------------------|
A#|-R-----------------------------------------------|
F#|-E-----------------------------------------------|
C#|-S-----------------------------------------------|
G#|-T-----------------------------------------------|
C#|-------------------------------------------------|
51  W
D#|-------------------------------------------------|
A#|-R-----------------------------------------------|
F#|-E-----------------------------------------------|
C#|-S-----------------------------------------------|
G#|-T-----------------------------------------------|
C#|-------------------------------------------------|
52  W
D#|-------------------------------------------------|
A#|-R-----------------------------------------------|
F#|-E-----------------------------------------------|
C#|-S-----------------------------------------------|
G#|-T-----------------------------------------------|
C#|-------------------------------------------------|
53  W
D#|-------------------------------------------------|
A#|-R-----------------------------------------------|
F#|-E-----------------------------------------------|
C#|-S-----------------------------------------------|
G#|-T-----------------------------------------------|
C#|-------------------------------------------------|
54  W
D#|-------------------------------------------------|
A#|-R-----------------------------------------------|
F#|-E-----------------------------------------------|
C#|-S-----------------------------------------------|
G#|-T-----------------------------------------------|
C#|-------------------------------------------------|
   * Clean Tone On
55   E     E     E     E     E     E     E     E
D#|-------15----------------15----------------------|
A#|-13----------13----------------13----------13----|
F#|-------------------14----------------14----------|
C#|-------------------------------------------------|
G#|-------------------------------------------------|
C#|-------------------------------------------------|
56   W
D#|-15----------------------------------------------|
A#|-------------------------------------------------|
F#|-------------------------------------------------|
C#|-------------------------------------------------|
G#|-------------------------------------------------|
C#|-------------------------------------------------|
57   E     E     E     E     E     E     E     E
D#|-------15----------------15----------------------|
A#|-13----------13----------------13----------13----|
F#|-------------------14----------------14----------|
C#|-------------------------------------------------|
G#|-------------------------------------------------|
C#|-------------------------------------------------|
58   W
D#|-15----------------------------------------------|
A#|-------------------------------------------------|
F#|-------------------------------------------------|
C#|-------------------------------------------------|
G#|-------------------------------------------------|
C#|-------------------------------------------------|
59   E     E     E     E     E     E     E     E
D#|-------15----------------15----------------------|
A#|-13----------13----------------13----------13----|
F#|-------------------14----------------14----------|
C#|-------------------------------------------------|
G#|-------------------------------------------------|
C#|-------------------------------------------------|
60   W
D#|-15----------------------------------------------|
A#|-------------------------------------------------|
F#|-------------------------------------------------|
C#|-------------------------------------------------|
G#|-------------------------------------------------|
C#|-------------------------------------------------|
                                        * Distortion On
61   E     E     E     E     E     E     Q
D#|-------15----------------15----------------------|
A#|-13----------13----------------13----------------|
F#|-------------------14----------------------------|
C#|-------------------------------------10\---------|
G#|-------------------------------------10\---------|
C#|-------------------------------------10\---------|
62  S  S  S  S  S  S  S  S  S  S  S  S  S  S  S  S  
D#|-------------------------------------------------|
A#|-------------------------------------------------|
F#|-------5-----4-p0--------------5-----4-p0--------|
C#|----------------------5-----------------------5--|
G#|-------------------------------------------------|
C#|-3--3-----3--------3-----3--3-----3--------3-----|
  pm.  .     .        .     .  .     .        .
63  S  S  S  S  S  S  S  S  S  S  S  S  S  S  S  S  
D#|-------------------------------------------------|
A#|-------------------------------------------------|
F#|-------5-----4-p0--------------5-----4-p0--------|
C#|----------------------5-----------------------5--|
G#|-------------------------------------------------|
C#|-3--3-----3--------3-----3--3-----3--------3-----|
  pm.  .     .        .     .  .     .        .
64  S  S  S  S  S  S  S  S  S  S  S  S  S  S  S  S  
D#|-------------------------------------------------|
A#|-------------------------------------------------|
F#|-------5-----4-p0--------------5-----4-p0--------|
C#|----------------------5-----------------------5--|
G#|-0--0-----0--------0-----0--0-----0--------0-----|
C#|-------------------------------------------------|
  pm.  .     .        .     .  .     .        .
65  S  S  S  S  S  S  S  S  S  S  S  S  S  S  S  S  
D#|-------------------------------------------------|
A#|-------------------------------------------------|
F#|-------5-----4-p0--------------5-----4-p0--------|
C#|----------------------5-----------------------5--|
G#|-0--0-----0--------0-----0--0-----0--------0-----|
C#|-------------------------------------------------|
  pm.  .     .        .     .  .     .        .
66  S  S  S  S  S  S  S  S  S  S  S  S  S  S  S  S  
D#|-------------------------------------------------|
A#|-------------------------------------------------|
F#|-------5-----4-p0--------------5-----4-p0--------|
C#|----------------------5-----------------------5--|
G#|-------------------------------------------------|
C#|-3--3-----3--------3-----3--3-----3--------3-----|
  pm.  .     .        .     .  .     .        .
67  S  S  S  S  S  S  S  S  S  S  S  S  S  S  S  S  
D#|-------------------------------------------------|
A#|-------------------------------------------------|
F#|-------5-----4-p0--------------5-----4-p0--------|
C#|----------------------5-----------------------5--|
G#|-------------------------------------------------|
C#|-3--3-----3--------3-----3--3-----3--------3-----|
  pm.  .     .        .     .  .     .        .
68  S  S  S  S  S  S  S  S  S  S  S  S  S  S  S  S  
D#|-------------------------------------------------|
A#|-------------------------------------------------|
F#|-------5-----4-p0--------------5-----4-p0--------|
C#|----------------------5-----------------------5--|
G#|-0--0-----0--------0-----0--0-----0--------0-----|
C#|-------------------------------------------------|
  pm.  .     .        .     .  .     .        .
69  S  S  S  S  S  S  S  S  S  S  S  S  S  S  S  S  
D#|-------------------------------------------------|
A#|-------------------------------------------------|
F#|-------5-----4-p0--------------5-----4-p0--------|
C#|----------------------5-----------------------5--|
G#|-0--0-----0--------0-----0--0-----0--------0-----|
C#|-------------------------------------------------|
  pm.  .     .        .     .  .     .        .
70  S  S  S  S  S  S  S  S  S  S  S  S  S  S  S  S
D#|-------------------------------------------------|
A#|-------------------------R-----------------------|
F#|-5--5--5--5--5--5--5--5--E--5--5--5--5--5--5--5--|
C#|-3--3--3--3--3--3--3--3--S--3--3--3--3--3--3--3--|
G#|-3--3--3--3--3--3--3--3--T--3--3--3--3--3--3--3--|
C#|-3--3--3--3--3--3--3--3-----3--3--3--3--3--3--3--|
71  S  S  S  S  S  S  S  S  S  S  S  S  S  S  S  S
D#|-------------------------------------------------|
A#|-R-----------------------R-----------------------|
F#|-E--5--5--5--5--5--5--5--E--5--5--5--5/-7--7--7--|
C#|-S--3--3--3--3--3--3--3--S--3--3--3--3/-5--5--5--|
G#|-T--3--3--3--3--3--3--3--T--3--3--3--3/-5--5--5--|
C#|----3--3--3--3--3--3--3-----3--3--3--3/-5--5--5--|
72  S  S  S  S  S  S  S  S  S  S  S  S  S  S  S  S
D#|-------------------------------------------------|
A#|-------------------------R-----------------------|
F#|-------------------------E-----------------------|
C#|-9--9--9--9--9--9--9--9--S--10-10-10-10-10-10-10-|
G#|-7--7--7--7--7--7--7--7--T--7--7--7--7--7--7--7--|
C#|-7--7--7--7--7--7--7--7-----7--7--7--7--7--7--7--|
73   S  S  S  S  S  S  S  S  S  S  S  S  S  S  S  S
D#|-------------------------------------------------|
A#|-------------------------R-----------------------|
F#|-------------------------E-----------------------|
C#|-9--9--9--9--9--9--9--9--S--5--5--5--5--5--5--5--|
G#|-7--7--7--7--7--7--7--7--T--5--5--5--5--5--5--5--|
C#|-7--7--7--7--7--7--7--7-----5--5--5--5--5--5--5--|
74  S  S  S  S  S  S  S  S  S  S  S  S  S  S  S  S
D#|-------------------------------------------------|
A#|-------------------------R-----------------------|
F#|-5--5--5--5--5--5--5--5--E--5--5--5--5--5--5--5--|
C#|-3--3--3--3--3--3--3--3--S--3--3--3--3--3--3--3--|
G#|-3--3--3--3--3--3--3--3--T--3--3--3--3--3--3--3--|
C#|-3--3--3--3--3--3--3--3-----3--3--3--3--3--3--3--|
75  S  S  S  S  S  S  S  S  S  S  S  S  S  S  S  S
D#|-------------------------------------------------|
A#|-R-----------------------R-----------------------|
F#|-E--5--5--5--5--5--5--5--E--5--5--5--5/-7--7--7--|
C#|-S--3--3--3--3--3--3--3--S--3--3--3--3/-5--5--5--|
G#|-T--3--3--3--3--3--3--3--T--3--3--3--3/-5--5--5--|
C#|----3--3--3--3--3--3--3-----3--3--3--3/-5--5--5--|
76  S  S  S  S  S  S  S  S  S  S  S  S  S  S  S  S
D#|-------------------------------------------------|
A#|-------------------------R-----------------------|
F#|-------------------------E-----------------------|
C#|-9--9--9--9--9--9--9--9--S--10-10-10-10-10-10-10-|
G#|-7--7--7--7--7--7--7--7--T--7--7--7--7--7--7--7--|
C#|-7--7--7--7--7--7--7--7-----7--7--7--7--7--7--7--|
77   S  S  S  S  S  S  S  S  S  S  S  S  S  S  S  S
D#|-------------------------------------------------|
A#|-------------------------R-----------------------|
F#|-------------------------E-----------------------|
C#|-9--9--9--9--9--9--9--9--S--5--5--5--5--5--5--5--|
G#|-7--7--7--7--7--7--7--7--T--5--5--5--5--5--5--5--|
C#|-7--7--7--7--7--7--7--7-----5--5--5--5--5--5--5--|
78  S  S  S  S  S  S  S  S  S  S  S  S  S  S  S  S
D#|-------------------------------------------------|
A#|-------------------------R-----------------------|
F#|-5--5--5--5--5--5--5--5--E--5--5--5--5--5--5--5--|
C#|-3--3--3--3--3--3--3--3--S--3--3--3--3--3--3--3--|
G#|-3--3--3--3--3--3--3--3--T--3--3--3--3--3--3--3--|
C#|-3--3--3--3--3--3--3--3-----3--3--3--3--3--3--3--|
79  S  S  S  S  S  S  S  S  S  S  S  S  S  S  S  S
D#|-------------------------------------------------|
A#|-R-----------------------R-----------------------|
F#|-E--5--5--5--5--5--5--5--E--5--5--5--5/-7--7--7--|
C#|-S--3--3--3--3--3--3--3--S--3--3--3--3/-5--5--5--|
G#|-T--3--3--3--3--3--3--3--T--3--3--3--3/-5--5--5--|
C#|----3--3--3--3--3--3--3-----3--3--3--3/-5--5--5--|
80  S  S  S  S  S  S  S  S  S  S  S  S  S  S  S  S
D#|-------------------------------------------------|
A#|-------------------------R-----------------------|
F#|-------------------------E-----------------------|
C#|-9--9--9--9--9--9--9--9--S--10-10-10-10-10-10-10-|
G#|-7--7--7--7--7--7--7--7--T--7--7--7--7--7--7--7--|
C#|-7--7--7--7--7--7--7--7-----7--7--7--7--7--7--7--|
81   S  S  S  S  S  S  S  S  S  S  S  S  S  S  S  S
D#|-------------------------------------------------|
A#|-------------------------R-----------------------|
F#|-------------------------E-----------------------|
C#|-9--9--9--9--9--9--9--9--S--5--5--5--5--5--5--5--|
G#|-7--7--7--7--7--7--7--7--T--5--5--5--5--5--5--5--|
C#|-7--7--7--7--7--7--7--7-----5--5--5--5--5--5--5--|
82  S  S  S  S  S  S  S  S  S  S  S  S  S  S  S  S
D#|-------------------------------------------------|
A#|-------------------------R-----------------------|
F#|-5--5--5--5--5--5--5--5--E--5--5--5--5--5--5--5--|
C#|-3--3--3--3--3--3--3--3--S--3--3--3--3--3--3--3--|
G#|-3--3--3--3--3--3--3--3--T--3--3--3--3--3--3--3--|
C#|-3--3--3--3--3--3--3--3-----3--3--3--3--3--3--3--|
83  S  S  S  S  S  S  S  S  S  S  S  S  S  S  S  S
D#|-------------------------------------------------|
A#|-R-----------------------R-----------------------|
F#|-E--5--5--5--5--5--5--5--E--5--5--5--5/-7--7--7--|
C#|-S--3--3--3--3--3--3--3--S--3--3--3--3/-5--5--5--|
G#|-T--3--3--3--3--3--3--3--T--3--3--3--3/-5--5--5--|
C#|----3--3--3--3--3--3--3-----3--3--3--3/-5--5--5--|
84  S  S  S  S  S  S  S  S  S  S  S  S  S  S  S  S
D#|-------------------------------------------------|
A#|-------------------------R-----------------------|
F#|-------------------------E-----------------------|
C#|-9--9--9--9--9--9--9--9--S--10-10-10-10-10-10-10-|
G#|-7--7--7--7--7--7--7--7--T--7--7--7--7--7--7--7--|
C#|-7--7--7--7--7--7--7--7-----7--7--7--7--7--7--7--|
85   S  S  S  S  S  S  S  S  S  S  S  S  S  S  S  S
D#|-------------------------------------------------|
A#|-------------------------R-----------------------|
F#|-------------------------E-----------------------|
C#|-9--9--9--9--9--9--9--9--S--5--5--5--5--5--5--5--|
G#|-7--7--7--7--7--7--7--7--T--5--5--5--5--5--5--5--|
C#|-7--7--7--7--7--7--7--7-----5--5--5--5--5--5--5--|
86  S  S  S  S  S  S  S  S  S  S  S  S  S  S  S  S
D#|-------------------------------------------------|
A#|-------------------------R-----------------------|
F#|-12-12-12-12-12-12-12-12-E--12-12-12-12-12-12-12-|
C#|-10-10-10-10-10-10-10-10-S--10-10-10-10-10-10-10-|
G#|-8--8--8--8--8--8--8--8--T--8--8--8--8--8--8--8--|
C#|-------------------------------------------------|
87  S  S  S  S  S  S  S  S  S  S  S  S  S  S  S  S
D#|-------------------------------------------------|
A#|-R-----------------------R-----------------------|
F#|-E-12-12-12-12-12-12-12--E--12-12-12-12-12-12-12-|
C#|-S-10-10-10-10-10-10-10--S--10-10-10-10-10-10-10-|
G#|-T-8--8--8--8--8--8--8---T--8--8--8--8-/10-10-10-|
C#|-------------------------------------------------|
88  S  S  S  S  S  S  S  S  S  S  S  S  S  S  S  S
D#|-------------------------------------------------|
A#|-R-----------------------R-----------------------|
F#|-E-12-12-12-12-12-12-12--E--10-10-10-10-10-10-10-|
C#|-S-10-10-10-10-10-10-10--S--10-10-10-10-10-10-10-|
G#|-T-12-12-12-12-12-12-12--T--12-12-12-12-12-12-12-|
C#|-------------------------------------------------|
89  S  S  S  S  S  S  S  S   Q   Q      
D#|----------------------------------|
A#|-R--------------------------------|
F#|-E-9--9--9--9--9--9--9---12-(12)--|
C#|-S-10-10-10-10-10-10-10--10-(10)--|
G#|-T-12-12-12-12-12-12-12--10-(10)--|
C#|----------------------------------|
90    W      
D#|----------------------------------|
A#|----------------------------------|
F#|-(12)-----------------------------|
C#|-(10)-----------------------------|
G#|-(10)-----------------------------|
C#|----------------------------------|

Thanks:)

I May Add Darran Smiths' Part In The Near Future

Enjoy :)



| /  slide up
| \  slide down
| h  hammer-on
| p  pull-off
| ~  vibrato
| +  harmonic
| x  Mute note
===============================================================================
comments
print report bad tab
1 comment total.
0 reply
wisemancheez wrote on August 24 2012, 05:57 pm

The interlude is actually Darran's Part (Now Gavin's). Perfect other than that including the tuning :)

I want to post or [tab]
guest
You may want to rate the tab now too:
select rating
Please do not post tabs as comments. Select "correction" instead!