Oops, an error
Loading. Please wait.

Streetcar Tab

ver6
ver6
More versions @911Tabs.com
768 views 1 this week
1 commentread comment
1 2 3 4 5
worth learning
x 2
Autoscroll
+/-
esc
set tempo
stop
Contributor
Tuning
D A D G B E
NEW! There's an official Ultimate Guitar app which is ideal
for learning songs when you're away from computer. Get the app
WARNING: You are trying to view
                                    content from Ultimate-Guitar.com
                                    in an unauthorized application,
                                    which is prohibited.

                                    Please use an official Ultimate
                                    Guitar Tabs application for iPhone,
                                    iPad or Android to access legitimate
                                    chords, guitar, bass, and drum tabs
                                    from Ultimate-Guitar.com database.

                                    Type "ultimate guitar tabs" in Apple
                                    App Store's or Android Market's
                                    search to find the application.
Artist/Band - Funeral For A Friend
Album - Hours
Song - Streetcar

Tuning: Drop D (D A D G B E)

Key:
PM = Palm Mute
/  = Slide Upwards
\  = Slide Downwards
h  = Hammer On
~  = Let String Ring

Intro:
E]---------------------------------------------------------------|
B]---------------------------------------------------------------|
G]---------------------------------------------------------------|
D]--5\4-----5--5-------------------------------------5--5-----5--|
A]--5\4-----5--5--5--5-5-5--5-5-5--5-5-5--5-5-5--5-5-5--5-----5--|
D]--5\4--0--5--5--5--5-5-5--5-5-5--5-5-5--5-5-5--5-5-5--5--5--5--|
PM       .        .  . . .  . . .  . . .  . . .  . .       .

E]---------------------------------------------------------------|
B]---------------------------------------------------------------|
G]---------------------------------------------------------------|
D]--5-----------------------5--5-5-5--5-5--5--5-----0------------|
A]--5--5--5-5-5--5-5-5--5-5-5--5-5-5--5-5--5--5-----0------------|
D]--5--5--5-5-5--5-5-5--5-5-5--5-5-5--5-5--5--5--5--0------------|
PM     .  . . .  . . .  . . .  . . .  . .

E]---------------------------------------------------------------|
B]---------------------------------------------------------------|
G]---------------------------------------------------------------|
D]--0-------------------------------------0--0-----0-------------| x2
A]--0--0--0-0-0--0-0-0--0-0-0--0-0-0--0-0-0--0-----0-------------|
D]--0--0--0-0-0--0-0-0--0-0-0--0-0-0--0-0-0--0--0--0-------------|
PM     .  . . .  . . .  . . .  . . .  . .       .

E]--------------------------------|
B]--------------------------------|
G]--------------------------------|
D]-------------------5\4-------5--|
A]--10-------9-------5\4-------5--|
D]-------0-------0---5\4---0---5--|
PM       .       .         .

Verse 1:
E]--------------------------------------------------------------|
B]--5---5--3---5--3--5--3--5h7---5--5--3--5--3--5--3--5--7---7--|
G]--6---6--4---6--4--6--4--6-----6--6--4--6--4--6--4--6--7---7--|
D]--------------------------------------------------------------|
A]--------------------------------------------------------------|
D]--------------------------------------------------------------|

E]-------------------------------------------------------------|
B]--7--5---7--5--7--5--7--8---7--7--5---7---5--7--5--7--8---5--|
G]--7--6---7--6--7--6--7--9---7--7--6---7---6--7--6--7--9---6--|
D]-------------------------------------------------------------|
A]-------------------------------------------------------------|
D]-------------------------------------------------------------|

E]----------------------------------------------------------|
B]--5--3---5--3--5--3--5h7---5--5--3--5--3--5--3--5--7---7--|
G]--6--4---6--4--6--4--6-----6--6--4--6--4--6--4--6--7---7--|
D]----------------------------------------------------------|
A]----------------------------------------------------------|
D]----------------------------------------------------------|

E]-------------------------------------------------------------|
B]--7--5---7--5--7--5--7--8---7--7--5---7---5--7--5--7--8---5--|
G]--7--6---7--6--7--6--7--9---7--7--6---7---6--7--6--7--9---6--|
D]-------------------------------------------------------------|
A]-------------------------------------------------------------|
D]-------------------------------------------------------------|

Chorus:
E]-------------------------------------------------------------|
B]--15---10--8--7--8--7--8--7--15---10--8--7--8--7--8--7---20--|
G]-------------------------------------------------------------|
D]-------------------------------------------------------------|
A]-------------------------------------------------------------|
D]-------------------------------------------------------------|

E]-----------------------------------------------|
B]--10-8-7-19---10-8-7-17---10-8-7-15-10-8-7-20--|
G]-----------------------------------------------|
D]-----------------------------------------------|
A]-----------------------------------------------|
D]-----------------------------------------------|

E]-----------------------------------------------|
B]--10-8-7-19---10-8-7-17---10-8-7-15-10-8-7-15--|
G]-----------------------------------------------|
D]-----------------------------------------------|
A]-----------------------------------------------|
D]-----------------------------------------------|

E]--------------------------------------------------------|
B]--10--8--7--8--7--8--7--15---10--8--7--8--7--8--7---20--|
G]--------------------------------------------------------|
D]--------------------------------------------------------|
A]--------------------------------------------------------|
D]--------------------------------------------------------|

E]-----------------------------------------------|
B]--10-8-7-19---10-8-7-17---10-8-7-15-10-8-7-20--|
G]-----------------------------------------------|
D]-----------------------------------------------|
A]-----------------------------------------------|
D]-----------------------------------------------|

E]-----------------------------------------------|
B]--10-8-7-19---10-8-7-17---10-8-7-15-10-8-7-15--|
G]-----------------------------------------------|
D]-----------------------------------------------|
A]-----------------------------------------------|
D]-----------------------------------------------|

Verse 2:
E]--------------------------------------------------------------|
B]--5---5--3---5--3--5--3--5h7---5--5--3--5--3--5--3--5--7---7--|
G]--6---6--4---6--4--6--4--6-----6--6--4--6--4--6--4--6--7---7--|
D]--------------------------------------------------------------|
A]--------------------------------------------------------------|
D]--------------------------------------------------------------|

E]-------------------------------------------------------------|
B]--7--5---7--5--7--5--7--8---7--7--5---7---5--7--5--7--8---5--|
G]--7--6---7--6--7--6--7--9---7--7--6---7---6--7--6--7--9---6--|
D]-------------------------------------------------------------|
A]-------------------------------------------------------------|
D]-------------------------------------------------------------|

E]----------------------------------------------------------|
B]--5--3---5--3--5--3--5h7---5--5--3--5--3--5--3--5--7---7--|
G]--6--4---6--4--6--4--6-----6--6--4--6--4--6--4--6--7---7--|
D]----------------------------------------------------------|
A]----------------------------------------------------------|
D]----------------------------------------------------------|

E]-------------------------------------------------------------|
B]--7--5---7--5--7--5--7--8---7--7--5---7---5--7--5--7--8---5--|
G]--7--6---7--6--7--6--7--9---7--7--6---7---6--7--6--7--9---6--|
D]-------------------------------------------------------------|
A]-------------------------------------------------------------|
D]-------------------------------------------------------------|

Chorus:
E]-------------------------------------------------------------|
B]--15---10--8--7--8--7--8--7--15---10--8--7--8--7--8--7---20--|
G]-------------------------------------------------------------|
D]-------------------------------------------------------------|
A]-------------------------------------------------------------|
D]-------------------------------------------------------------|

E]-----------------------------------------------|
B]--10-8-7-19---10-8-7-17---10-8-7-15-10-8-7-20--|
G]-----------------------------------------------|
D]-----------------------------------------------|
A]-----------------------------------------------|
D]-----------------------------------------------|

E]-----------------------------------------------|
B]--10-8-7-19---10-8-7-17---10-8-7-15-10-8-7-15--|
G]-----------------------------------------------|
D]-----------------------------------------------|
A]-----------------------------------------------|
D]-----------------------------------------------|

E]--------------------------------------------------------|
B]--10--8--7--8--7--8--7--15---10--8--7--8--7--8--7---20--|
G]--------------------------------------------------------|
D]--------------------------------------------------------|
A]--------------------------------------------------------|
D]--------------------------------------------------------|

E]-----------------------------------------------|
B]--10-8-7-19---10-8-7-17---10-8-7-15-10-8-7-20--|
G]-----------------------------------------------|
D]-----------------------------------------------|
A]-----------------------------------------------|
D]-----------------------------------------------|

E]-----------------------------------------------|
B]--10-8-7-19---10-8-7-17---10-8-7-15-10-8-7-15--|
G]-----------------------------------------------|
D]-----------------------------------------------|
A]-----------------------------------------------|
D]-----------------------------------------------|

E]--------------------------------------------------------|
B]--10--8--7--8--7--8--7--15---10--8--7--8--7--8--7---20--|
G]--------------------------------------------------------|
D]--------------------------------------------------------|
A]--------------------------------------------------------|
D]--------------------------------------------------------|

E]-----------------------------------------------|
B]--10-8-7-19---10-8-7-17---10-8-7-15-10-8-7-20--|
G]-----------------------------------------------|
D]-----------------------------------------------|
A]-----------------------------------------------|
D]-----------------------------------------------|

E]-----------------------------------------------|
B]--10-8-7-19---10-8-7-17---10-8-7-15-10-8-7-15--|
G]-----------------------------------------------|
D]-----------------------------------------------|
A]-----------------------------------------------|
D]-----------------------------------------------|

E]--------------------------------------------------------|
B]--10--8--7--8--7--8--7--15---10--8--7--8--7--8--7---20--|
G]--------------------------------------------------------|
D]--------------------------------------------------------|
A]--------------------------------------------------------|
D]--------------------------------------------------------|

E]-----------------------------------------------|
B]--10-8-7-19---10-8-7-17---10-8-7-15-10-8-7-20--|
G]-----------------------------------------------|
D]-----------------------------------------------|
A]-----------------------------------------------|
D]-----------------------------------------------|

E]-----------------------------------------------|
B]--10-8-7-19---10-8-7-17---10-8-7-15-10-8-7-15--|
G]-----------------------------------------------|
D]-----------------------------------------------|
A]-----------------------------------------------|
D]-----------------------------------------------|

Bridge:
E]---9---9---9---9---9---9--10--10--10--10--10--10--12--12--12--12--|
B]--10--10--10--10--10--10--10--10--10--10--10--10--10--10--10--10--|
G]------------------------------------------------------------------|
D]------------------------------------------------------------------| x3
A]------------------------------------------------------------------|
D]------------------------------------------------------------------|

E]--10-10-10-10-12--12---10-10-10-10-12--12---10-10-10-10-12--12--|
B]--10-10-10-10-10--10---10-10-10-10-10--10---10-10-10-10-10--10--|
G]----------------------------------------------------------------|
D]----------------------------------------------------------------|
A]----------------------------------------------------------------|
D]----------------------------------------------------------------|

E]---9---9---9---9---9---9--10--10--10--10--10--10--12--12--12--12--|
B]--10--10--10--10--10--10--10--10--10--10--10--10--10--10--10--10--|
G]------------------------------------------------------------------|
D]------------------------------------------------------------------| x3
A]------------------------------------------------------------------|
D]------------------------------------------------------------------|

E]--10-10-10-10-12--12---10-10-10-10-12--12---10-10-10-10-12--12--|
B]--10-10-10-10-10--10---10-10-10-10-10--10---10-10-10-10-10--10--|
G]----------------------------------------------------------------|
D]----------------------------------------------------------------|
A]----------------------------------------------------------------|
D]----------------------------------------------------------------|

E]---9---9---9---9---9---9--10--10--10--10--10--10--12--12--12--12--|
B]--10--10--10--10--10--10--10--10--10--10--10--10--10--10--10--10--|
G]------------------------------------------------------------------|
D]------------------------------------------------------------------| x3
A]------------------------------------------------------------------|
D]------------------------------------------------------------------|

E]--10-10-10-10-12--12---10-10-10-10-12--12---10-10-10-10-12--12--|
B]--10-10-10-10-10--10---10-10-10-10-10--10---10-10-10-10-10--10--|
G]----------------------------------------------------------------|
D]----------------------------------------------------------------|
A]----------------------------------------------------------------|
D]----------------------------------------------------------------|

E]---9----9----9--10------------12--10--9------|
B]--10---10---10--10----10--10-------------10--|
G]---------------------------------------------|
D]---------------------------------------------| x4
A]---------------------------------------------|
D]---------------------------------------------|

E]---9---9---9---9---9---9--10--10--10--10--10--10--12--12--12--12--|
B]--10--10--10--10--10--10--10--10--10--10--10--10--10--10--10--10--|
G]------------------------------------------------------------------|
D]------------------------------------------------------------------| x3
A]------------------------------------------------------------------|
D]------------------------------------------------------------------|

E]---9---9---9---9---9---9--10--10--10--10--10--10--10--10--10--10--12~--|
B]--10--10--10--10--10--10--10--10--10--10--10--10--10--10--10--10--10~--|
G]-----------------------------------------------------------------------|
D]-----------------------------------------------------------------------|
A]-----------------------------------------------------------------------|
D]-----------------------------------------------------------------------|
comments
We did not receive enough feedback on this tab! Please rate:
print report bad tab
1 2 3 4 5
1 comment total.
0 reply
Wilomentena wrote on July 31 2007, 12:26 pm

its not drop d its drop to C# G# C# F# A# D#

I want to post or [tab]
guest
You may want to rate the tab now too:
select rating
Please do not post tabs as comments. Select "correction" instead!