Oops, an error
Loading. Please wait.

The Getaway Plan Tab

ver2
ver2

Whole song

Interactive

More versions @911Tabs.com
232 views 1 this week
1 commentread comment
1 2 3 4 5
accurate
x 3
Autoscroll
+/-
esc
set tempo
stop
Hey! There's an official Ultimate Guitar app which is ideal
for learning songs when you're away from computer. Get the app
WARNING: You are trying to view
                                    content from Ultimate-Guitar.com
                                    in an unauthorized application,
                                    which is prohibited.

                                    Please use an official Ultimate
                                    Guitar Tabs application for iPhone,
                                    iPad or Android to access legitimate
                                    chords, guitar, bass, and drum tabs
                                    from Ultimate-Guitar.com database.

                                    Type "ultimate guitar tabs" in Apple
                                    App Store's or Android Market's
                                    search to find the application.
#----------------------------------PLEASE NOTE---------------------------------#
#This file is the author's own work and represents their interpretation of the-#
#song. You may only use this file for private study, scholarship, or research.-#
#------------------------------------------------------------------------------#

Funeral For A Friend - The Getaway Plan
Tabbed By: Fil(max_powered_nutter@hotmail.com) 

Standard FFAF Tunning

Quite a long song but always lots of little changes which is why this 
tab is fairly long :D Should be pretty much complete!

Intro

Guitar 1
eb|--------------------------------------------------------------------|
Bb|--------------------------------------------------------------------|
Gb|------------------------6777------------------------6777------------|
Db|--44----44----44----54--xxxx--44----44----44----54--xxxx------------|
Ab|--44----44----44----54--4555--44----44----44----54--4555------------|
Db|--44----44----44----54--------44----44----44----54------------------|

Guitar 2
eb|--------------------------------------------------------------------|
Bb|--------------------------------------------------------------------|
Gb|------------------------6777------------------------6777------------|
Db|-----45----45----45-----xxxx-----45----45----45-54--xxxx------------|
Ab|-----45----45----45-----4555-----45----45----45-54--4555------------|
Db|--------------------------------------------------------------------|

Guitar 1 x2
eb|--------------------------------------------------------------------|
Bb|--------------------------------------------------------------------|
Gb|--9999999999999999-11111111111111111111211--------------------------|
Db|--xxxxxxxxxxxxxxxx-xxxxxxxxxxxxxxxx-x--x-x--------------------------|
Ab|--7777777777777777-9999999999999999-9/10/9--------------------------|
Db|--------------------------------------------------------------------|

Guitar 2
eb|--------------------------------------------------------------------|
Bb|--------------------------------------------------------------------|
Gb|--------------------------------------------------------------------|
Db|--44-44/5-44-44/5-44-44/5-44-44/5-44-44/5-44-44/5-44-44/5-44-44/5---|
Ab|--44-44/5-44-44/5-44-44/5-44-44/5-44-44/5-44-44/5-44-44/5-44-44/5---|
Db|--------------------------------------------------------------------|

Guitar 1 x2
eb|--------------------------------------------------------------------|
Bb|--------------------------------------------------------------------|
Gb|--1212121212121212121212121212-1414141414141414141414141414--121612-|
Db|--xxxxxxxxxxxxxxxxxxxxxxxxxxxx-xxxxxxxxxxxxxxxxxxxxxxxxxxxx---x-x-x-|
Ab|--1010101010101010101010101010-1212121212121212121212121212--121412-|
Db|--------------------------------------------------------------------|

Guitar 2
eb|--------------------------------------------------------------------|
Bb|--------------------------------------------------------------------|
Gb|--------------------------------------------------------------------|
Db|--44-44/5-44-44/5-44-44/5-44-44/5-44-44/5-44-44/5-44-44/5-44-44/5---|
Ab|--44-44/5-44-44/5-44-44/5-44-44/5-44-44/5-44-44/5-44-44/5-44-44/5---|
Db|--------------------------------------------------------------------|

Guitar 1
eb|--------------------------------------------------------------------|
Bb|--------------------------------------------------------------------|
Gb|--------------------------------------------------------------------|
Db|--9~~-------------------------9~~-----------------------------------|
Ab|--9~~-------------------------9~~-----------------------------------|
Db|--9~~-------------------------9~~-----------------------------------|

Guitar 2
eb|--------------------------------------------------------------------|
Bb|--------------------------------------------------------------------|
Gb|--------------------------------------------------------------------|
Db|--4~~-------------------------4~~-----------------------------------|
Ab|--4~~-------------------------4~~-----------------------------------|
Db|--------------------------------------------------------------------|

Verse 00.33secs

Guitar 1
eb|--------------------------------------------------------------------|
Bb|--R-----------------------------------------------------------------|
Gb|--E-----------------------------------------------------------------|
Db|--S-----------------------------------------------------------------|
Ab|--T-----------------------------------------------------------------|
Db|--------------------------------------------------------------------|

Guitar 2
eb|--------------------------------------------------------------------|
Bb|--------------------------------------------------------------------|
Gb|--------------------------------------------------------------------|
Db|--2h444-2h444-5-5h7777--2h444-2h444-5-5h7777------------------------|
Ab|--2h444-2h444-5-5h7777--2h444-2h444-5-5h7777------------------------|
Db|--2h444-2h444-5-5h7777--2h444-2h444-5-5h7777------------------------|

Guitar 1
eb|--------------------------------------------------------------------|
Bb|--R-----------------------------------------------------------------|
Gb|--E-----------------------------------------------------------------|
Db|--S-----------------------------------------------------------------|
Ab|--T-----------------------------------------------------------------|
Db|--------------------------------------------------------------------|

Guitar 2
eb|--------------------------------------------------------------------|
Bb|--------------------------------------------------------------------|
Gb|--------------------------------------------------------------------|
Db|--2h444-2h444-5-5h7777--2h444-2h444x--------------------------------|
Ab|--2h444-2h444-5-5h7777--2h444-2h444x--------------------------------|
Db|--2h444-2h444-5-5h7777--2h444-2h444x--------------------------------|

Guitar 1
eb|--------------------------------------------------------------------|
Bb|--------------------------------------------------------------------|
Gb|--------------------------------------------------------------------|
Db|--2h444-2h444-5-5h7777--2h444-2h444-5-5h7777------------------------|
Ab|--2h444-2h444-5-5h7777--2h444-2h444-5-5h7777------------------------|
Db|--2h444-2h444-5-5h7777--2h444-2h444-5-5h7777------------------------|


Guitar 2
eb|--------------------------------------------------------------------|
Bb|--------------------------------------------------------------------|
Gb|--------------------------------------------------------------------|
Db|--2h444-2h444-5-5h7777--2h444-2h444-5-5h7777------------------------|
Ab|--2h444-2h444-5-5h7777--2h444-2h444-5-5h7777------------------------|
Db|--2h444-2h444-5-5h7777--2h444-2h444-5-5h7777------------------------|

Guitar 1
eb|--------------------------------------------------------------------|
Bb|--------------------------------------------------------------------|
Gb|--------------------------------------------------------------------|
Db|--2h444-2h444-5-5h7777--2h444-2h444-5-5h7777------------------------|
Ab|--2h444-2h444-5-5h7777--2h444-2h444-5-5h7777------------------------|
Db|--2h444-2h444-5-5h7777--2h444-2h444-5-5h7777------------------------|


Guitar 2
eb|--------------------------------------------------------------------|
Bb|--------------------------------------------------------------------|
Gb|--------------------------------------------------------------------|
Db|--2h444-2h444-5-5h7777--2h444-2h444-5-5h7777------------------------|
Ab|--2h444-2h444-5-5h7777--2h444-2h444-5-5h7777------------------------|
Db|--2h444-2h444-5-5h7777--2h444-2h444-5-5h7777------------------------|


Break 1.00 min
 
Guitar 1
eb|--------------------------------------------------------------------|
Bb|--------------------------------------------------------------------|
Gb|--55-555-577-799-7-55-555-577-799-7---------------------------------|
Db|--xx-xxx-xxx-xxx-x-xx-xxx-xxx-xxx-x---------------------------------|
Ab|--33-333-355-577-5-33-333-355-577-5---------------------------------|
Db|--------------------------------------------------------------------|

Guitar 2
eb|--------------------------------------------------------------------|
Bb|--------------------------------------------------------------------|
Gb|--55-555-577-799-7-55-555-577-799-7---------------------------------|
Db|--xx-xxx-xxx-xxx-x-xx-xxx-xxx-xxx-x---------------------------------|
Ab|--33-333-355-577-5-33-333-355-577-5---------------------------------|
Db|--------------------------------------------------------------------|

Guitar 1 Light palm muting
eb|--------------------------------------------------------------------|
Bb|--------------------------------------------------------------------|
Gb|--------------------------------------------------------------------|
Db|--44-444-444-444-455-555-555-555-500-000-000-000-0------------------|
Ab|--44-444-444-444-455-555-555-555-500-000-000-000-0------------------|
Db|--44-444-444-444-455-555-555-555-500-000-000-000-0------------------|

Guitar 2 Light palm muting
eb|--------------------------------------------------------------------|
Bb|--------------------------------------------------------------------|
Gb|--------------------------------------------------------------------|
Db|--44-444-444-444-455-555-555-555-500-000-000-000-0------------------|
Ab|--44-444-444-444-455-555-555-555-500-000-000-000-0------------------|
Db|--44-444-444-444-455-555-555-555-500-000-000-000-0------------------|

Guitar 1
eb|--------------------------------------------------------------------|
Bb|--------------------------------------------------------------------|
Gb|--------------------------------------------------------------------|
Db|--7~~----------8~~--------------------------------------------------|
Ab|--7~~----------8~~--------------------------------------------------|
Db|--7~~----------8~~--------------------------------------------------|

Guitar 2
eb|--------------------------------------------------------------------|
Bb|--------------------------------------------------------------------|
Gb|--------------------------------------------------------------------|
Db|--77-777-777--788-888-888-8-----------------------------------------|
Ab|--77-777-777--788-888-888-8-----------------------------------------|
Db|--77-777-777--788-888-888-8-----------------------------------------|

Guitar 1 Light palm muting
eb|--------------------------------------------------------------------|
Bb|--------------------------------------------------------------------|
Gb|--------------------------------------------------------------------|
Db|--44-444-444-444-455-555-555-555-500-000-000-000-0------------------|
Ab|--44-444-444-444-455-555-555-555-500-000-000-000-0------------------|
Db|--44-444-444-444-455-555-555-555-500-000-000-000-0------------------|

Guitar 2
eb|---2---2---2---2---2---2---2---2---2---2---2---2--------------------|
Bb|----3---3---3---3---3---3---3---3---3---3---3---3-------------------|
Gb|--------------------------------------------------------------------|
Db|--4---4---4---4---5---5---5---5---0---0---0---0---------------------|
Ab|--------------------------------------------------------------------|
Db|--------------------------------------------------------------------|

Guitar 1
eb|--------------------------------------------------------------------|
Bb|--------------------------------------------------------------------|
Gb|--------------------------------------------------------------------|
Db|--7~~----------8~~--------------------------------------------------|
Ab|--7~~----------8~~--------------------------------------------------|
Db|--7~~----------8~~--------------------------------------------------|

Guitar 2
eb|---2---2----2---2---------------------------------------------------|
Bb|----3---3----3---3--------------------------------------------------|
Gb|--2---2---2/3--3----------------------------------------------------|
Db|--------------------------------------------------------------------|
Ab|--------------------------------------------------------------------|
Db|--------------------------------------------------------------------|

Intro 1.43mins

Guitar 1
eb|--------------------------------------------------------------------|
Bb|--------------------------------------------------------------------|
Gb|--------------------------------------------------------------------|
Db|--44----44----44----54----------------------------------------------|
Ab|--44----44----44----54----------------------------------------------|
Db|--44----44----44----54----------------------------------------------|

Guitar 2
eb|--------------------------------------------------------------------|
Bb|--------------------------------------------------------------------|
Gb|--------------------------------------------------------------------|
Db|-----45----45----45-54----------------------------------------------|
Ab|-----45----45----45-54----------------------------------------------|
Db|--------------------------------------------------------------------|

Verse 1,48mins x 2
Guitar 1
eb|--------------------------------------------------------------------|
Bb|--------------------------------------------------------------------|
Gb|--------------------------------------------------------------------|
Db|--2h444-2h444-5-5h7777--2h444-2h444-5-5h7777------------------------|
Ab|--2h444-2h444-5-5h7777--2h444-2h444-5-5h7777------------------------|
Db|--2h444-2h444-5-5h7777--2h444-2h444-5-5h7777------------------------|


Guitar 2
eb|--------------------------------------------------------------------|
Bb|--------------------------------------------------------------------|
Gb|--------------------------------------------------------------------|
Db|--2h444-2h444-5-5h7777--2h444-2h444-5-5h7777------------------------|
Ab|--2h444-2h444-5-5h7777--2h444-2h444-5-5h7777------------------------|
Db|--2h444-2h444-5-5h7777--2h444-2h444-5-5h7777------------------------|

Guitar 1
eb|--------------------------------------------------------------------|
Bb|--------------------------------------------------------------------|
Gb|--------------------------------------------------------------------|
Db|--2h444-2h444-5-5h7777--2h444-2h444-5-5h7777------------------------|
Ab|--2h444-2h444-5-5h7777--2h444-2h444-5-5h7777------------------------|
Db|--2h444-2h444-5-5h7777--2h444-2h444-5-5h7777------------------------|


Guitar 2
eb|--------------------------------------------------------------------|
Bb|--------------------------------------------------------------------|
Gb|--------------------------------------------------------------------|
Db|--2h444-2h444-5-5h7777--2h444-2h444-5-5h7777------------------------|
Ab|--2h444-2h444-5-5h7777--2h444-2h444-5-5h7777------------------------|
Db|--2h444-2h444-5-5h7777--2h444-2h444-5-5h7777------------------------|

Break 2.06mins
 
Guitar 1
eb|--------------------------------------------------------------------|
Bb|--------------------------------------------------------------------|
Gb|--55-555-577-799-7--------------------------------------------------|
Db|--xx-xxx-xxx-xxx-x--------------------------------------------------|
Ab|--33-333-355-577-5--------------------------------------------------|
Db|--------------------------------------------------------------------|

Guitar 2
eb|--------------------------------------------------------------------|
Bb|--------------------------------------------------------------------|
Gb|--55-555-577-799-7--------------------------------------------------|
Db|--xx-xxx-xxx-xxx-x--------------------------------------------------|
Ab|--33-333-355-577-5--------------------------------------------------|
Db|--------------------------------------------------------------------|

Guitar 1 Light palm muting
eb|--------------------------------------------------------------------|
Bb|--------------------------------------------------------------------|
Gb|--------------------------------------------------------------------|
Db|--44-444-444-444-455-555-555-555-500-000-000-000-0------------------|
Ab|--44-444-444-444-455-555-555-555-500-000-000-000-0------------------|
Db|--44-444-444-444-455-555-555-555-500-000-000-000-0------------------|

Guitar 2 Light palm muting
eb|--------------------------------------------------------------------|
Bb|--------------------------------------------------------------------|
Gb|--------------------------------------------------------------------|
Db|--44-444-444-444-455-555-555-555-500-000-000-000-0------------------|
Ab|--44-444-444-444-455-555-555-555-500-000-000-000-0------------------|
Db|--44-444-444-444-455-555-555-555-500-000-000-000-0------------------|

Guitar 1
eb|--------------------------------------------------------------------|
Bb|--------------------------------------------------------------------|
Gb|--------------------------------------------------------------------|
Db|--7~~----------8~~--------------------------------------------------|
Ab|--7~~----------8~~--------------------------------------------------|
Db|--7~~----------8~~--------------------------------------------------|

Guitar 2
eb|--------------------------------------------------------------------|
Bb|--------------------------------------------------------------------|
Gb|--------------------------------------------------------------------|
Db|--77-777-777--788-888-888-8-----------------------------------------|
Ab|--77-777-777--788-888-888-8-----------------------------------------|
Db|--77-777-777--788-888-888-8-----------------------------------------|

Guitar 1 Light palm muting
eb|--------------------------------------------------------------------|
Bb|--------------------------------------------------------------------|
Gb|--------------------------------------------------------------------|
Db|--44-444-444-444-455-555-555-555-500-000-000-000-0------------------|
Ab|--44-444-444-444-455-555-555-555-500-000-000-000-0------------------|
Db|--44-444-444-444-455-555-555-555-500-000-000-000-0------------------|

Guitar 2 Light palm muting
eb|--------------------------------------------------------------------|
Bb|--------------------------------------------------------------------|
Gb|--------------------------------------------------------------------|
Db|--44-444-444-444-455-555-555-555-500-000-000-000-0------------------|
Ab|--44-444-444-444-455-555-555-555-500-000-000-000-0------------------|
Db|--44-444-444-444-455-555-555-555-500-000-000-000-0------------------|

Guitar 1
eb|--------------------------------------------------------------------|
Bb|--------------------------------------------------------------------|
Gb|--------------------------------------------------------------------|
Db|--7~~----------8~~--------------------------------------------------|
Ab|--7~~----------8~~--------------------------------------------------|
Db|--7~~----------8~~--------------------------------------------------|

Guitar 2
eb|--------------------------------------------------------------------|
Bb|--------------------------------------------------------------------|
Gb|--------------------------------------------------------------------|
Db|--77-777-777--788-888-888-8-----------------------------------------|
Ab|--77-777-777--788-888-888-8-----------------------------------------|
Db|--77-777-777--788-888-888-8-----------------------------------------|

Guitar 1 Heavy palm muting
eb|--------------------------------------------------------------------|
Bb|--------------------------------------------------------------------|
Gb|--------------------------------------------------------------------|
Db|--44-444-444-444-455-555-555-555-500-000-000-000-0------------------|
Ab|--44-444-444-444-455-555-555-555-500-000-000-000-0------------------|
Db|--44-444-444-444-455-555-555-555-500-000-000-000-0------------------|
      . ..  ..  ..    . ..  .   ..    . ..  ..  .. 

Guitar 2
eb|---2---2---2---2---2---2---2---2---2---2---2---2--------------------|
Bb|----3---3---3---3---3---3---3---3---3---3---3---3-------------------|
Gb|--------------------------------------------------------------------|
Db|--4---4---4---4---5---5---5---5---0---0---0---0---------------------|
Ab|--------------------------------------------------------------------|
Db|--------------------------------------------------------------------|

Guitar 1
eb|--------------------------------------------------------------------|
Bb|--------------------------------------------------------------------|
Gb|--------------------------------------------------------------------|
Db|--7~~----------8~~--------------------------------------------------|
Ab|--7~~----------8~~--------------------------------------------------|
Db|--7~~----------8~~--------------------------------------------------|

Guitar 2
eb|---2---2----2---2---------------------------------------------------|
Bb|----3---3----3---3--------------------------------------------------|
Gb|--2---2---2/3--3----------------------------------------------------|
Db|--------------------------------------------------------------------|
Ab|--------------------------------------------------------------------|
Db|--------------------------------------------------------------------|


Break2 3.02mins

Guitar 1 
eb|--------------------------------------------------------------------|
Bb|--------------------------------------------------------------------|
Gb|--------------------------------------------------------------------|
Db|--4~~-------------5~~-------------0~~-------------------------------|
Ab|--4~~-------------5~~-------------0~~-------------------------------|
Db|--4~~-------------5~~-------------0~~-------------------------------|

Guitar 2 palm mute
eb|---2---2---2---2---2---2---2---2---2---2---2---2--------------------|
Bb|----3---3---3---3---3---3---3---3---3---3---3---3-------------------|
Gb|--------------------------------------------------------------------|
Db|--4---4---4---4---5---5---5---5---0---0---0---0---------------------|
Ab|--------------------------------------------------------------------|
Db|--------------------------------------------------------------------|

Guitar 1
eb|--------------------------------------------------------------------|
Bb|--------------------------------------------------------------------|
Gb|--------------------------------------------------------------------|
Db|--7~~----------8~~--------------------------------------------------|
Ab|--7~~----------8~~--------------------------------------------------|
Db|--7~~----------8~~--------------------------------------------------|

Guitar 2 palm mute
eb|---2---2----2---2---------------------------------------------------|
Bb|----3---3----3---3--------------------------------------------------|
Gb|--2---2---2/3--3----------------------------------------------------|
Db|--------------------------------------------------------------------|
Ab|--------------------------------------------------------------------|
Db|--------------------------------------------------------------------|

Guitar 1 
eb|--------------------------------------------------------------------|
Bb|--------------------------------------------------------------------|
Gb|--------------------------------------------------------------------|
Db|--4~~-------------5~~-------------0~~-------------------------------|
Ab|--4~~-------------5~~-------------0~~-------------------------------|
Db|--4~~-------------5~~-------------0~~-------------------------------|

Guitar 2 palm mute
eb|---2---2---2---2---2---2---2---2---2---2---2---2--------------------|
Bb|----3---3---3---3---3---3---3---3---3---3---3---3-------------------|
Gb|--------------------------------------------------------------------|
Db|--4---4---4---4---5---5---5---5---0---0---0---0---------------------|
Ab|--------------------------------------------------------------------|
Db|--------------------------------------------------------------------|

Guitar 1
eb|--------------------------------------------------------------------|
Bb|--------------------------------------------------------------------|
Gb|--------------------------------------------------------------------|
Db|--7~~----------8~~--------------------------------------------------|
Ab|--7~~----------8~~--------------------------------------------------|
Db|--7~~----------8~~--------------------------------------------------|

Guitar 2 palm mute
eb|---2---2----2---2---------------------------------------------------|
Bb|----3---3----3---3--------------------------------------------------|
Gb|--2---2---2/3--3----------------------------------------------------|
Db|--------------------------------------------------------------------|
Ab|--------------------------------------------------------------------|
Db|--------------------------------------------------------------------|

Outro 3.36mins

Guitar 1 Let Rip!
eb|--------------------------------------------------------------------|
Bb|--------------------------------------------------------------------|
Gb|--------------------------------------------------------------------|
Db|--44x444x444x444x455x555x555x555x500x000x000x000x0x-----------------|
Ab|--44x444x444x444x455x555x555x555x500x000x000x000x0x-----------------|
Db|--44x444x444x444x455x555x555x555x500x000x000x000x0x-----------------|

Guitar 2 
eb|--------------------------------------------------------------------|
Bb|--------------------------------------------------------------------|
Gb|--------------------------------------------------------------------|
Db|--44x444x444x444x455x555x555x555x500x000x000x000x0x-----------------|
Ab|--44x444x444x444x455x555x555x555x500x000x000x000x0x-----------------|
Db|--44x444x444x444x455x555x555x555x500x000x000x000x0x-----------------|

Guitar 1
eb|--------------------------------------------------------------------|
Bb|--------------------------------------------------------------------|
Gb|--------------------------------------------------------------------|
Db|--77x777x777--788x888x888x8-----------------------------------------|
Ab|--77x777x777--788x888x888x8-----------------------------------------|
Db|--77x777x777--788x888x888x8-----------------------------------------|

Guitar 2
eb|--------------------------------------------------------------------|
Bb|--------------------------------------------------------------------|
Gb|--------------------------------------------------------------------|
Db|--77x777x777--788x888x888x8-----------------------------------------|
Ab|--77x777x777--788x888x888x8-----------------------------------------|
Db|--77x777x777--788x888x888x8-----------------------------------------|

Ending 4.10mins

Guitar 1
eb|--------------------------------------------------------------------|
Bb|--------------------------------------------------------------------|
Gb|--------------------------------------------------------------------|
Db|--44----44----44----54----------------------------------------------|
Ab|--44----44----44----54----------------------------------------------|
Db|--44----44----44----54----------------------------------------------|

Guitar 2
eb|--------------------------------------------------------------------|
Bb|--------------------------------------------------------------------|
Gb|--------------------------------------------------------------------|
Db|-----45----45----45-54----------------------------------------------|
Ab|-----45----45----45-54----------------------------------------------|
Db|--------------------------------------------------------------------|
comments
We did not receive enough feedback on this tab! Please rate:
print report bad tab
1 2 3 4 5
1 comment total.
0 reply
Gu1T@r_H3r0 wrote on September 3 2004, 12:00 am

Good but guitar two on the intro should play
Db|---45---45---45-----
Ab|---45---45---45-----
Db|---45---45---45--etc
It sounds much more like the original like this

I want to post or [tab]
guest
You may want to rate the tab now too:
select rating
Please do not post tabs as comments. Select "correction" instead!