Oops, an error
Loading. Please wait.

Waterfront Dance Club Tab

666 views 9 this week
no commentswrite comment
1 2 3 4 5
excellent!
x 1
Autoscroll
+/-
esc
set tempo
stop
Contributor
Difficulty
Tuning
Tabbers playing skills
intermediate
C# G# C# F# A# D#
advanced +
Hey! There's an official Ultimate Guitar app which is ideal
for learning songs when you're away from computer. Get the app
WARNING: You are trying to view
                                    content from Ultimate-Guitar.com
                                    in an unauthorized application,
                                    which is prohibited.

                                    Please use an official Ultimate
                                    Guitar Tabs application for iPhone,
                                    iPad or Android to access legitimate
                                    chords, guitar, bass, and drum tabs
                                    from Ultimate-Guitar.com database.

                                    Type "ultimate guitar tabs" in Apple
                                    App Store's or Android Market's
                                    search to find the application.
Tabbed by Francis
e-mail: f_sario@yahoo.com
09283150081
Lucena City


Tuning: Drop C#

Intro:
O:00-O:25
GtrI
|-0~-0~-0~-0~-0~-0~-0~-0~-0~-0~-0~-0~-0~-0~-0~-0~-0~-0~-0~--|
|-0~-0~-0~-0~-0~-0~-0~-0~-0~-0~-0~-0~-0~-0~-0~-0~-0~-0~-0~--|
|-3~-3~-3~-3~-3~-3~-3~-3~-3~-3~-3~-3~-3~-3~-3~-3~-3~-3~-3~--|
|-2~-2~-2~-2~-2~-2~-2~-2~-2~-2~-2~-2~-2~-2~-2~-2~-2~-2~-2~--|
|-2~-2~-2~-2~-2~-2~-2~-2~-2~-2~-2~-2~-2~-2~-2~-2~-2~-2~-2~--|
|-2~-2~-2~-2~-2~-2~-2~-2~-2~-2~-2~-2~-2~-2~-2~-2~-2~-2~-2~--|

GtrII
|-0~-0~-0~-0~-0~-0~-0~-0~-0~-0~-0~-0~-0~-0~-0~-0~-0~-0~-0~--|
|-0~-0~-0~-0~-0~-0~-0~-0~-0~-0~-0~-0~-0~-0~-0~-0~-0~-0~-0~--|
|-9~-9~-9~-9~-9~-9~-9~-9~-9~-9~-9~-9~-9~-9~-9~-9~-9~-9~-9~--|
|-----------------------------------------------------------|
|-7~-7~-7~-7~-7~-7~-7~-7~-7~-7~-7~-7~-7~-7~-7~-7~-7~-7~-7~--|
|-----------------------------------------------------------|

Verse:

|-----------------------------------------------------------|
|-----------------------------------------------------------|
|-----------------------------------------------------------|
|-2-2-2--7-9/-5-5--7-5-7-9----2-2-2--7-9/-5-5--7-5-7-9------|2x
|-2-2-2--7-9/-5-5--7-5-7-9----2-2-2--7-9/-5-5--7-5-7-9------|
|-2-2-2--7-9/-5-5--7-5-7-9----2-2-2--7-9/-5-5--7-5-7-9------|

|-----------------------------------------------------------|
|-----------------------------------------------------------|
|-----------------------------------------------------------|
|-5-5-5--2-5/7-----7-5-7-9-----5-5-5--2-5/7-----7-5-7-9-----|
|-5-5-5--2-5/7-5-5-7-5-7-9-----5-5-5--2-5/7-5-5-7-5-7-9-----|
|-5-5-5--2-5/7-----7-5-7-9-----5-5-5--2-5/7-----7-5-7-9-----|

|-----------------------------------------------------------|
|-----------------------------------------------------------|
|-----------------------------------------------------------|
|-2-2-2--7-9/-5-5--7-5-7-9----2-2-2--7-9/-5-5--7-5-7-9------|2x
|-2-2-2--7-9/-5-5--7-5-7-9----2-2-2--7-9/-5-5--7-5-7-9------|
|-2-2-2--7-9/-5-5--7-5-7-9----2-2-2--7-9/-5-5--7-5-7-9------|

|-----------------------------------------------------------|
|-----------------------------------------------------------|
|-111111111111111111111111----131313131313131313131313------|
|-------------------------(2x)------------------------(2x)--|
|-9-9-9-9-9-9-9-9-9-9-9-9-----111111111111111111111111------|
|-----------------------------------------------------------|

Chorus:
GtrI
|-----333-----333--------------------|-----333-----333------------------|
|-----333-----333--------------------|-----333-----333------------------|
|------------------------------------|----------------------------------|
|-222-----222------444-555-77777-7-7-|-222-----222----444-555-77777777--|2x
|-222-----222------222-333-55555-5-5-|-222-----222----222-333-55555555--|
|-222-----222------------------------|-222-----222----------------------|
GtrII
|-----14-15--------------------------|-----14-15------------------|
|---17------17-(2x)---------------17-|---17-----17-(2x)-----------|
|-16----------------16-14-12-14-16---|-16---------------16-14-16~-|
|------------------------------------|----------------------------|
|------------------------------------|----------------------------|
|------------------------------------|----------------------------|

|-----14-15--------------------------|-----14-15------------14-15-17-15-14---|
|---17------17-(2x)---------------17-|---17-----17-(2x)---17-----------------|
|-16----------------16-14-12-14-16---|-16---------------16-------------------|
|------------------------------------|---------------------------------------|
|------------------------------------|---------------------------------------|
|------------------------------------|---------------------------------------|


then
|-----------------------------------------------------------|
|-----------------------------------------------------------|
|-----------------------------------------------------------|
|-2-2-2--7-9/-5-5--7-5-7-9----2-2-2--7-9/------7-5-7-9------|
|-2-2-2--7-9/-5-5--7-5-7-9----2-2-2--7-9/-5-5--7-5-7-9------|
|-2-2-2--7-9/-5-5--7-5-7-9----2-2-2--7-9/------7-5-7-9------|

Verse2:
|-----------------------------------------------------------|
|-----------------------------------------------------------|
|-----------------------------------------------------------|
|-2-2-2--7-9/------7-5-7-9----2-2-2--7-9/------7-5-7-9------|2x
|-2-2-2--7-9/-5-5--7-5-7-9----2-2-2--7-9/-5-5--7-5-7-9------|
|-2-2-2--7-9/------7-5-7-9----2-2-2--7-9/------7-5-7-9------|

|-----------------------------------------------------------|
|-----------------------------------------------------------|
|-----------------------------------------------------------|
|-5-5-5--2-5/7-----7-5-7-9-----5-5-5--2-5/7-----7-5-7-9-----|
|-5-5-5--2-5/7-5-5-7-5-7-9-----5-5-5--2-5/7-5-5-7-5-7-9-----|
|-5-5-5--2-5/7-----7-5-7-9-----5-5-5--2-5/7-----7-5-7-9-----|

|-----------------------------------------------------------|
|-----------------------------------------------------------|
|-----------------------------------------------------------|
|-2-2-2--7-9/------7-5-7-9----2-2-2--7-9/------7-5-7-9------|
|-2-2-2--7-9/-5-5--7-5-7-9----2-2-2--7-9/-5-5--7-5-7-9------|
|-2-2-2--7-9/------7-5-7-9----2-2-2--7-9/------7-5-7-9------|

Chorus:
GtrI
|-----333-----333--------------------|-----333-----333------------------|
|-----333-----333--------------------|-----333-----333------------------|
|------------------------------------|----------------------------------|
|-222-----222------444-555-77777-7-7-|-222-----222----444-555-77777777--|2x
|-222-----222------222-333-55555-5-5-|-222-----222----222-333-55555555--|
|-222-----222------------------------|-222-----222----------------------|
GtrII
|-----14-15--------------------------|-----14-15------------------|
|---17------17-(2x)---------------17-|---17-----17-(2x)-----------|
|-16----------------16-14-12-14-16---|-16---------------16-14-16~-|
|------------------------------------|----------------------------|
|------------------------------------|----------------------------|
|------------------------------------|----------------------------|

|-----14-15--------------------------|-----14-15------------14-15-17-15-14---------------|
|---17------17-(2x)---------------17-|---17-----17-(2x)---17--------------15--15-----15~-|
|-16----------------16-14-12-14-16---|-16---------------16------------------14---14~-----|
|------------------------------------|---------------------------------------------------|
|------------------------------------|---------------------------------------------------|
|------------------------------------|---------------------------------------------------|

Bridge1-
GtrI
|--------------------------------------------------------------------|
|--------------------------------------------------------------------|
|--------------------------------------------------------------------|2x
|-555555555555-0000000000000-101010101010101010101010-0000000000000--|
|-555555555555-0000000000000-101010101010101010101010-0000000000000--|
|-555555555555-0000000000000-101010101010101010101010-0000000000000--|


|-----15-14-------------------15-14----------------15-14---------------------------|
|-----------15----------------------15-------------------15------------------------|
|-12~----------14--12-11--------------14--12-14-12~---------14-12-11-----11-12-14~-|
|-------------------------12~----------------------------------------12~-----------|2x
|----------------------------------------------------------------------------------|
|----------------------------------------------------------------------------------|

Bridge2:

|------------------------------|-----------------------------|
|------------------------------|-----------------------------|
|------------------------------|-----------------------------|
|-4~-------------2~------------|---4~-------------2~---------|
|-4~-------------2~------------|---4~-------------2~---------|
|-4~-------------2~------------|---4~-------------2~---------|

|------------------------------|-----------------------------|
|------------------------------|----------17-----------------|
|-11~--------------------------|-------15------(4x)----------|
|------------------------------|----14-----------------------|
|-9~---------------------------|-----------------------------|
|------------------------------|-----------------------------|

then..
GtrI
|--------------------------------------------------|
|--------------------------------------------------|
|--------------------------------------------------|2x
|-4-4-4-4-4-4-4-4-4-4-4-4-2-2-2-2-2-2-2-2-2-2-2-2--|
|-4-4-4-4-4-4-4-4-4-4-4-4-2-2-2-2-2-2-2-2-2-2-2-2--|
|-4-4-4-4-4-4-4-4-4-4-4-4-2-2-2-2-2-2-2-2-2-2-2-2--|

|--------------------------------------------------|
|-------17------17----------17---------17----------|
|----15-------15---------15--------15--------------|2x
|-14-------14--------14--------14------------------|
|--------------------------------------------------|
|--------------------------------------------------|

Coda:do Bridge1

outro:
GtrI
|------3------3----3-------3------3----3-------3------3----3-|-----------|
|------3------3----3-------3------3----3-------3------3----3-|-----------|
|------------------------------------------------------------|-----------|
|------------------------------------------------------------|-4~-5~--0~-|
|-2222---2222---22----2222---2222---22----2222---2222---22---|-2~-3~--0~-|
|-2222---2222---22----2222---2222---22----2222---2222---22---|--------0~-|

|-----12+-----12+------------12+-----12+----------12+--------|  --15-14-----|
|-12+-----12+-------------12+-----12+----------12+-----------|  --------15~-|
|-------------------12+~------------------12+~----------12+~-|  ------------|
|-------------------12+~------------------12+~----------12+~-|2x------------|
|------------------------------------------------------------|  ------------|
|------------------------------------------------------------|  ------------|


End

comments
We did not receive enough feedback on this tab! Please rate:
print report bad tab
1 2 3 4 5
I want to post or [tab]
guest
You may want to rate the tab now too:
select rating
Please do not post tabs as comments. Select "correction" instead!