Oops, an error
Loading. Please wait.

You Cant See The Forest For The Wolves Tab

3,148 views 3 this week
4 commentsread comments
1 2 3 4 5
excellent!
x 5
add to favorites launch autoscroll
font size
0
reset
Autoscroll
+/-
esc
set tempo
stop
Contributor
UTF
WARNING: You are trying to view
                                    content from Ultimate-Guitar.com
                                    in an unauthorized application,
                                    which is prohibited.

                                    Please use an official Ultimate
                                    Guitar Tabs application for iPhone,
                                    iPad or Android to access legitimate
                                    chords, guitar, bass, and drum tabs
                                    from Ultimate-Guitar.com database.

                                    Type "ultimate guitar tabs" in Apple
                                    App Store's or Android Market's
                                    search to find the application.
-------------------------------------------------------------------------------
        You Can't See The Forest For The Wolves - Funeral For A Friend
-------------------------------------------------------------------------------
Tabbed by: Rhys May
Email: rmtabs@live.com

-----------------

This is my first tab, it's a great song off FFAF's new album "Memory and Humanity". Enjoy!

*UPDATE: 28/10/08- Corrected a part in the verses*
-----------------

Tuning: Drop C# [C# G# C# F# A# D#] (Every string down a half-step then drop the low Eb 
whole step down to C#)

Intro: (Acoustic) 0:00 to 0:26

Guitar 1 (Listen closely for the strumming pattern, I don't think it's 100% accurate here)
D#|---------------5---5-5-5-5-5-5-5-5-5--5-5-5-5--5---5-5-5-5-5-5-5-5-----------|
A#|---------------3---3-3-3-3-3-3-3-3-3--3-3-3-3--3---3-3-3-3-3-3-3-3-----------|
F#|---2-----------2---2-2-2-2-2-2-2-2-2--2-2-2-2--2---2-2-2-2-2-2-2-2-----------|
C#|---0--0-0-0-0--0---0-0-0-0-0-0-0-0-0--0-0-0-0--0---0-0-0-0-0-0-0-0--x3-------|
G#|---0--0-0-0-0--0---0-0-0-0-0-0-0-0-0--0-0-0-0--0---0-0-0-0-0-0-0-0-----------|
C#|---0--0-0-0-0--0---0-0-0-0-0-0-0-0-4--4-4-4-4--4---4-4-4-4-4-4-4-4-----------|

Guitar 2
D#|---------------------------------------------------------------------------|
A#|---------------------------------------------------------------------------|
F#|---------------------------------------------------------------------------|
C#|---------------------------------------------------------------------------|
G#|---------------------------------------------------------------------------|
C#|---------------------------------------------------------------------------|

Guitar 1
D#|--5--5-5-5-5--5--5--5-5-5-5------------------------------------------------|
A#|--3--3-3-3-3--3--3--3-3-3-3------------------------------------------------|
F#|--2--2-2-2-2--2--2--2-2-2-2--7---------------------------------------------|
C#|--0--0-0-0-0--0--0--0-0-0-0--8--let----------------------------------------|
G#|--0--0-0-0-0--0--0--0-0-0-0--8--ring---------------------------------------|
C#|--5--5-5-5-5--5--5--5-5-5-5--8---------------------------------------------|

Guitar 2
D#|---------------------------------------------------------------------------|
A#|---------------------------------------------------------------------------|
F#|---------------------------------------------------------------------------|
C#|---------------------------------------------------------------------------|
G#|---------------------------------------------------------------------------|
C#|---------------------------------------------------------------------------|

1st Verse: 0:26 to 1:02

Guitar 1
D#|---------------------------------------------------------------------------|
A#|---------------------------------------------------------------------------|
F#|-10-7-------------9-6-----6-7----10-7-------------9-6-----6-7----(x2)------|
C#|----------8-5-----------------------------8-5------------------------------|
G#|--8-5-------------7-4-----4-5-----8-5-------------7-4-----4-5--------------|
C#|------0-0-8-5-0-0-----0-0-----0-0-----0-0-8-5-0-0-----0-0-----0-0----------|
             "I've Lost My Innocence!"

Guitar 2
D#|---------------------------------------------------------------------------|
A#|------------------------------------------------------------------(x2)-----|
F#|---------------------------------------------------------------------------|
C#|---------------------------------------------------------------------------|
G#|---------------------------------------------------------------------------|
C#|---------------------------------------------------------------------------|

Guitar 1
D#|---------------------------------------------------------------------------|
A#|--1010101010101010101010101010101010101010101010101010101010101010---------|
F#|--101010101010101010101010101010109-9-9-9-9-9-9-9-9-9-9-9-9-9-9-9----------|
C#|--8-8-8-8-8-8-8-8-8-8-8-8-8-8-8-8-7-7-7-7-7-7-7-7-7-7-7-7-7-7-7-7----------|
G#|--8-8-8-8-8-8-8-8-8-8-8-8-8-8-8-8-7-7-7-7-7-7-7-7-7-7-7-7-7-7-7-7----------|
C#|--8-8-8-8-8-8-8-8-8-8-8-8-8-8-8-8-7-7-7-7-7-7-7-7-7-7-7-7-7-7-7-7----------|
         "I can't stomach, my own stomach"

Guitar 2
D#|--------------------------------------------------------------------------|
A#|--1010101010101010101010101010101010101010101010101010101010101010---------|
F#|--101010101010101010101010101010109-9-9-9-9-9-9-9-9-9-9-9-9-9-9-9----------|
C#|--8-8-8-8-8-8-8-8-8-8-8-8-8-8-8-8-7-7-7-7-7-7-7-7-7-7-7-7-7-7-7-7----------|
G#|--8-8-8-8-8-8-8-8-8-8-8-8-8-8-8-8-7-7-7-7-7-7-7-7-7-7-7-7-7-7-7-7----------|
C#|--8-8-8-8-8-8-8-8-8-8-8-8-8-8-8-8-7-7-7-7-7-7-7-7-7-7-7-7-7-7-7-7----------|

Guitar 1
D#|---------------------------------------------------------------------------|
A#|---------------------------------------------------------------------------|
F#|-10-7-------------9-6-----6-7----10-7-------------9-6-----6-7----(x2)------|
C#|----------8-5-----------------------------8-5------------------------------|
G#|--8-5-------------7-4-----4-5-----8-5-------------7-4-----4-5--------------|
C#|------0-0-8-5-0-0-----0-0-----0-0-----0-0-8-5-0-0-----0-0-----0-0----------|
             "It can't tell me truths I need"

Guitar 2 (Harmony)
D#|--------------------------------------------------------------------(x2)---|
A#|-10-----------------------------------10-----------------------------------|
F#|----10-----10-7-----12-9-----9-10--------10-----10-7-----12-9-----9-10-----|
C#|---------------------------------------------------------------------------|
G#|---------------------------------------------------------------------------|
C#|-------0-0------0-0------0-0------0-0-------0-0------0-0------0-0-----0-0--|

Guitar 1
D#|---------------------------------------------------------------------------|
A#|--1010101010101010101010101010101010101010101010101010101010101010---------|
F#|--101010101010101010101010101010109-9-9-9-9-9-9-9-9-9-9-9-9-9-9-9----------|
C#|--8-8-8-8-8-8-8-8-8-8-8-8-8-8-8-8-7-7-7-7-7-7-7-7-7-7-7-7-7-7-7-7----------|
G#|--8-8-8-8-8-8-8-8-8-8-8-8-8-8-8-8-7-7-7-7-7-7-7-7-7-7-7-7-7-7-7-7----------|
C#|--8-8-8-8-8-8-8-8-8-8-8-8-8-8-8-8-7-7-7-7-7-7-7-7-7-7-7-7-7-7-7-7----------|
         "What should I believe?"

Guitar 2
D#|---------------------------------------------------------------------------|
A#|--1010101010101010101010101010101010101010101010101010101010101010---------|
F#|--101010101010101010101010101010109-9-9-9-9-9-9-9-9-9-9-9-9-9-9-9----------|
C#|--8-8-8-8-8-8-8-8-8-8-8-8-8-8-8-8-7-7-7-7-7-7-7-7-7-7-7-7-7-7-7-7----------|
G#|--8-8-8-8-8-8-8-8-8-8-8-8-8-8-8-8-7-7-7-7-7-7-7-7-7-7-7-7-7-7-7-7----------|
C#|--8-8-8-8-8-8-8-8-8-8-8-8-8-8-8-8-7-7-7-7-7-7-7-7-7-7-7-7-7-7-7-7----------|

1st Chorus: 1:02 to 1:25

Guitar 1
D#|---------------------------------------------------------------------------|
A#|---------------------------------------------------------------------------|
F#|-7-7-7-7-7-7-7-7-7-7-7-7-7-7-7-7-6-6-6-6-6-6-6-6-6-6-6-6-6-6-6-6-----(x2)--|
C#|-0-0-0-0-0-0-0-0-0-0-0-0-0-0-0-0-4-4-4-4-4-4-4-4-4-4-4-4-4-4-4-4-----------|
G#|-0-0-0-0-0-0-0-0-0-0-0-0-0-0-0-0-4-4-4-4-4-4-4-4-4-4-4-4-4-4-4-4-----------|
C#|-0-0-0-0-0-0-0-0-0-0-0-0-0-0-0-0-4-4-4-4-4-4-4-4-4-4-4-4-4-4-4-4-----------|
          "Give me something to believe in"

Guitar 2
D#|---------------------------------------------------------------------------|
A#|--10---------10-------------------------10-----------10--------------------|
F#|-------------------------9-----7-------------------------------------------|
C#|---------------------------------------------------------------------------|
G#|---------------------------------------------------------------------(x2)--|
C#|---------------------------------------------------------------------------|

Guitar 1
D#|---------------------------------------------------------------------------|
A#|---------------------------------------------------------------------------|
F#|-7-7-7-7-7-7-7-7-7-7-7-7-7-7-7-7-6-6-6-6-6-6-6-6-6-6-6-6-6-6-6-6-----------|
C#|-0-0-0-0-0-0-0-0-0-0-0-0-0-0-0-0-4-4-4-4-4-4-4-4-4-4-4-4-4-4-4-4-----------|
G#|-0-0-0-0-0-0-0-0-0-0-0-0-0-0-0-0-4-4-4-4-4-4-4-4-4-4-4-4-4-4-4-4-----------|
C#|-0-0-0-0-0-0-0-0-0-0-0-0-0-0-0-0-4-4-4-4-4-4-4-4-4-4-4-4-4-4-4-4-----------|
                                "A moment of reflection"

Guitar 2
D#|---------------------------------------------------------------------------|
A#|---------------------------10-----------------------10------10-------------|
F#|-11----------12-------------------9-------7--------------------------------|
C#|---------------------------------------------------------------------------|
G#|---------------------------------------------------------------------------|
C#|---------------------------------------------------------------------------|

Guitar 1
D#|---------------------------------------------------------------------------|
A#|---------------------------------------------------------------------------|
F#|-7-7-7-7-7-7-7-7-7-7-7-7-7-7-7-7-------------------------------------------|
C#|-5-5-5-5-5-5-5-5-5-5-5-5-5-5-5-5--8--8--8--8--8--8--8--8-------------------|
G#|-5-5-5-5-5-5-5-5-5-5-5-5-5-5-5-5--8--8--8--8--8--8--8--8-------------------|
C#|-5-5-5-5-5-5-5-5-5-5-5-5-5-5-5-5--8--8--8--8--8--8--8--8-------------------|

Guitar 2
D#|---------------------------------------------------------------------------|
A#|-10-------------10---------------------------------------------------------|
F#|------7--7--7-------7--7--7-------7--7--7--7--7--7--7--7-------------------|
C#|---------------------------------------------------------------------------|
G#|----------------------------------5--5--5--5--5--5--5--5-------------------|
C#|---------------------------------------------------------------------------|
                                    "What should I believe?"

2nd Verse: 1:25 to 2:00

Guitar 1
D#|---------------------------------------------------------------------------|
A#|---------------------------------------------------------------------------|
F#|-10-7-------------9-6-----6-7----10-7-------------9-6-----6-7----(x2)------|
C#|----------8-5-----------------------------8-5------------------------------|
G#|--8-5-------------7-4-----4-5-----8-5-------------7-4-----4-5--------------|
C#|------0-0-8-5-0-0-----0-0-----0-0-----0-0-8-5-0-0-----0-0-----0-0----------|
      (Vocals join in on 2nd time round; "Television tells me one thing")

Guitar 2 (Harmony)
D#|--------------------------------------------------------------------(x2)---|
A#|-10-----------------------------------10-----------------------------------|
F#|----10-----10-7-----12-9-----9-10--------10-----10-7-----12-9-----9-10-----|
C#|---------------------------------------------------------------------------|
G#|---------------------------------------------------------------------------|
C#|-------0-0------0-0------0-0------0-0-------0-0------0-0------0-0-----0-0--|

Guitar 1
D#|---------------------------------------------------------------------------|
A#|--1010101010101010101010101010101010101010101010101010101010101010---------|
F#|--101010101010101010101010101010109-9-9-9-9-9-9-9-9-9-9-9-9-9-9-9----------|
C#|--8-8-8-8-8-8-8-8-8-8-8-8-8-8-8-8-7-7-7-7-7-7-7-7-7-7-7-7-7-7-7-7----------|
G#|--8-8-8-8-8-8-8-8-8-8-8-8-8-8-8-8-7-7-7-7-7-7-7-7-7-7-7-7-7-7-7-7----------|
C#|--8-8-8-8-8-8-8-8-8-8-8-8-8-8-8-8-7-7-7-7-7-7-7-7-7-7-7-7-7-7-7-7----------|
         "Bulls**t never had any intelligence"

Guitar 2
D#|---------------------------------------------------------------------------|
A#|--1010101010101010101010101010101010101010101010101010101010101010---------|
F#|--101010101010101010101010101010109-9-9-9-9-9-9-9-9-9-9-9-9-9-9-9----------|
C#|--8-8-8-8-8-8-8-8-8-8-8-8-8-8-8-8-7-7-7-7-7-7-7-7-7-7-7-7-7-7-7-7----------|
G#|--8-8-8-8-8-8-8-8-8-8-8-8-8-8-8-8-7-7-7-7-7-7-7-7-7-7-7-7-7-7-7-7----------|
C#|--8-8-8-8-8-8-8-8-8-8-8-8-8-8-8-8-7-7-7-7-7-7-7-7-7-7-7-7-7-7-7-7----------|

Guitar 1
D#|---------------------------------------------------------------------------|
A#|---------------------------------------------------------------------------|
F#|-10-7-------------9-6-----6-7----10-7-------------9-6-----6-7----(x2)------|
C#|----------8-5-----------------------------8-5------------------------------|
G#|--8-5-------------7-4-----4-5-----8-5-------------7-4-----4-5--------------|
C#|------0-0-8-5-0-0-----0-0-----0-0-----0-0-8-5-0-0-----0-0-----0-0----------|
             "War's a terror that we can do without"

Guitar 2
D#|---------------------------------------------------------------------------|
A#|----------------------------------------------------------------(x2)-------|
F#|---------------------------------------------------------------------------|
C#|---------------------------------------------------------------------------|
G#|---------------------------------------------------------------------------|
C#|---------------------------------------------------------------------------|

Guitar 1
D#|---------------------------------------------------------------------------|
A#|--1010101010101010101010101010101010101010101010101010101010101010---------|
F#|--101010101010101010101010101010109-9-9-9-9-9-9-9-9-9-9-9-9-9-9-9----------|
C#|--8-8-8-8-8-8-8-8-8-8-8-8-8-8-8-8-7-7-7-7-7-7-7-7-7-7-7-7-7-7-7-7----------|
G#|--8-8-8-8-8-8-8-8-8-8-8-8-8-8-8-8-7-7-7-7-7-7-7-7-7-7-7-7-7-7-7-7----------|
C#|--8-8-8-8-8-8-8-8-8-8-8-8-8-8-8-8-7-7-7-7-7-7-7-7-7-7-7-7-7-7-7-7----------|
         "Just don't look for the hidden meanings"

Guitar 2
D#|---------------------------------------------------------------------------|
A#|--1010101010101010101010101010101010101010101010101010101010101010---------|
F#|--101010101010101010101010101010109-9-9-9-9-9-9-9-9-9-9-9-9-9-9-9----------|
C#|--8-8-8-8-8-8-8-8-8-8-8-8-8-8-8-8-7-7-7-7-7-7-7-7-7-7-7-7-7-7-7-7----------|
G#|--8-8-8-8-8-8-8-8-8-8-8-8-8-8-8-8-7-7-7-7-7-7-7-7-7-7-7-7-7-7-7-7----------|
C#|--8-8-8-8-8-8-8-8-8-8-8-8-8-8-8-8-7-7-7-7-7-7-7-7-7-7-7-7-7-7-7-7----------|

2nd Chorus: 2:00 to 2:24

Guitar 1
D#|---------------------------------------------------------------------------|
A#|---------------------------------------------------------------------------|
F#|-7-7-7-7-7-7-7-7-7-7-7-7-7-7-7-7-6-6-6-6-6-6-6-6-6-6-6-6-6-6-6-6-----(x2)--|
C#|-0-0-0-0-0-0-0-0-0-0-0-0-0-0-0-0-4-4-4-4-4-4-4-4-4-4-4-4-4-4-4-4-----------|
G#|-0-0-0-0-0-0-0-0-0-0-0-0-0-0-0-0-4-4-4-4-4-4-4-4-4-4-4-4-4-4-4-4-----------|
C#|-0-0-0-0-0-0-0-0-0-0-0-0-0-0-0-0-4-4-4-4-4-4-4-4-4-4-4-4-4-4-4-4-----------|
          "Give me something to believe in"

Guitar 2
D#|---------------------------------------------------------------------------|
A#|--10---------10-------------------------10-----------10--------------------|
F#|-------------------------9-----7-------------------------------------------|
C#|---------------------------------------------------------------------------|
G#|---------------------------------------------------------------------(x2)--|
C#|---------------------------------------------------------------------------|

Guitar 1
D#|---------------------------------------------------------------------------|
A#|---------------------------------------------------------------------------|
F#|-7-7-7-7-7-7-7-7-7-7-7-7-7-7-7-7-6-6-6-6-6-6-6-6-6-6-6-6-6-6-6-6-----------|
C#|-0-0-0-0-0-0-0-0-0-0-0-0-0-0-0-0-4-4-4-4-4-4-4-4-4-4-4-4-4-4-4-4-----------|
G#|-0-0-0-0-0-0-0-0-0-0-0-0-0-0-0-0-4-4-4-4-4-4-4-4-4-4-4-4-4-4-4-4-----------|
C#|-0-0-0-0-0-0-0-0-0-0-0-0-0-0-0-0-4-4-4-4-4-4-4-4-4-4-4-4-4-4-4-4-----------|
                                "A moment of reflection"

Guitar 2
D#|---------------------------------------------------------------------------|
A#|---------------------------10-----------------------10------10-------------|
F#|-11----------12-------------------9-------7--------------------------------|
C#|---------------------------------------------------------------------------|
G#|---------------------------------------------------------------------------|
C#|---------------------------------------------------------------------------|

Guitar 1
D#|---------------------------------------------------------------------------|
A#|---------------------------------------------------------------------------|
F#|-7-7-7-7-7-7-7-7-7-7-7-7-7-7-7-7-------------------------------------------|
C#|-5-5-5-5-5-5-5-5-5-5-5-5-5-5-5-5--8--8--8--8--8--8--8--8-------------------|
G#|-5-5-5-5-5-5-5-5-5-5-5-5-5-5-5-5--8--8--8--8--8--8--8--8-------------------|
C#|-5-5-5-5-5-5-5-5-5-5-5-5-5-5-5-5--8--8--8--8--8--8--8--8-------------------|

Guitar 2
D#|---------------------------------------------------------------------------|
A#|-10-------------10---------------------------------------------------------|
F#|------7--7--7-------7--7--7-------7--7--7--7--7--7--7--7-------------------|
C#|---------------------------------------------------------------------------|
G#|----------------------------------5--5--5--5--5--5--5--5-------------------|
C#|---------------------------------------------------------------------------|
                                    "What should I believe?"

6/8 Breakdown: 2:24 to 3:02

Guitar 1
D#|---------------------------------------------------------------------------|
A#|---------------------------------------------------------------------------|
F#|----------------------------------------------------------------------(x2)-|
C#|-0-------------------------------------------------------------------------|
G#|-0-------(Let--------------------------------------------------------------|
C#|-0--------Ring)-------------------------------------\8--8-8-7/-------------|

Guitar 2

D#|---------------------------------------------------------------------------|
A#|----------------------------------------------------------------------(x2)-|
F#|---------------------------------------------------------------------------|
C#|-0-------------------------------------------------------------------------|
G#|-0-------(Let---------------------------------------\5--5-5-4/-------------|
C#|-0--------Ring)------------------------------------------------------------|
             *Guitar 2 joins in with the harmonising 4 notes 2nd time round*

Guitar 1
D#|---------------------------------------------------------------------------|
A#|---------------------------------------------------------------------------|
F#|-----------------------------------------------------------------(x2)------|
C#|-0--0--0-0--0--0--0-0--0--0--0-0-------------------------------------------|
G#|-0--0--0-0--0--0--0-0--0--0--0-0-------------------------------------------|
C#|-0--0--0-0--0--0--0-0--0--0--0-0-------\8--8-8-7/--------------------------|
     "Start with a voice, with some heart" *Tight Chords*

Guitar 2
D#|---------------------------------------------------------------------------|
A#|------------------------------------------------------------------(x2)-----|
F#|---------------------------------------------------------------------------|
C#|-0--0--0-0--0--0--0-0--0--0--0-0-------------------------------------------|
G#|-0--0--0-0--0--0--0-0--0--0--0-0-------\5--5-5-4/--------------------------|
C#|-0--0--0-0--0--0--0-0--0--0--0-0-------------------------------------------|

Guitar 1
D#|-------5-5--------5-5--------5-5-------------------------------------------|
A#|-------3-3--------3-3--------3-3-------------------------------------------|
F#|-------2-2--------2-2--------2-2----------------------------------(x2)-----|
C#|-0--0--0-0--0--0--0-0--0--0--0-0-------------------------------------------|
G#|-0--0--0-0--0--0--0-0--0--0--0-0-------------------------------------------|
C#|-0--0--0-0--0--0--0-0--0--0--0-0-------\8--8-8-7/--------------------------|
    "Start with a voice, with some heart" *Open Chords*

Guitar 2
D#|---------------------------------------------------------------------------|
A#|------------------------------------------------------------------(x2)-----|
F#|---------------------------------------------------------------------------|
C#|-0--0--0-0--0--0--0-0--0--0--0-0-------------------------------------------|
G#|-0--0--0-0--0--0--0-0--0--0--0-0-------\5--5-5-4/--------------------------|
C#|-0--0--0-0--0--0--0-0--0--0--0-0-------------------------------------------|
          *Both guitars hold last note for 8 beats on 2nd time round*

Outro Verse: 3:02 to 3:21

Guitar 1
D#|---------------------------------------------------------------------------|
A#|---------------------------------------------------------------------------|
F#|-10-7-------------9-6-----6-7----10-7-------------9-6-----6-7----(x2)------|
C#|----------8-5-----------------------------8-5------------------------------|
G#|--8-5-------------7-4-----4-5-----8-5-------------7-4-----4-5--------------|
C#|------0-0-8-5-0-0-----0-0-----0-0-----0-0-8-5-0-0-----0-0-----0-0----------|
             "Give me something to believe in"

Guitar 2
D#|---------------------------------------------------------------------------|
A#|---------------------------------------------------------------------------|
F#|------------------------------------------------------------------(x2)-----|
C#|---------------------------------------------------------------------------|
G#|---------------------------------------------------------------------------|
C#|---------------------------------------------------------------------------|


Guitar 1
D#|---------------------------------------------------------------------------|
A#|---------------------------------------------------------------------------|
F#|-10-7-------------9-6-----6-7----10-7-------------9-6-----6-7----10-7---E--|
C#|----------8-5-----------------------------8-5---------------------------N--|
G#|--8-5-------------7-4-----4-5-----8-5-------------7-4-----4-5-----8-5---D--|
C#|------0-0-8-5-0-0-----0-0-----0-0-----0-0-8-5-0-0-----0-0-----0-0----------|

Guitar 2 (Harmony)
D#|---------------------------------------------------------------------------------E-|
A#|-10-----------------------------------10----------------------------------10-----N-|
F#|----10-----10-7-----12-9-----9-10--------10-----10-7-----12-9-----9-10-------10--D-|
C#|-----------------------------------------------------------------------------------|
G#|-----------------------------------------------------------------------------------|
C#|-------0-0------0-0------0-0------0-0-------0-0------0-0------0-0-----0-0----------|

| /  slide up
| \  slide down
| h  hammer-on
| p  pull-off
| ~  vibrato
| +  harmonic
| x  Mute note
===============================================================================
4 comments total. Showing first comments.
+2 reply
nirvanaboy183 wrote on October 27 2008, 07:17 pm

wicked

+2 reply
Guy101 wrote on October 27 2008, 09:13 pm

Great tab, absolutely spot on. I knew people had learnt this and I've been waiting so long for a tab of this song. If you have anymore FFAF songs from Memory and Humanity then don't hesitate to share the wealth :P

0 reply
UTF wrote on October 28 2008, 06:34 am

thanks for the feedback guys; I should be doing "To die like Mouchette" later on in the week hopefully so keep an eye out for it!

I want to post or [tab]
guest
You may want to rate the tab now too:
select rating
Please do not post tabs as comments. Select "correction" instead!