Oops, an error
Loading. Please wait.

Youre It Tab

11,919 views 36 this week
no commentswrite comment
1 2 3 4 5
excellent!
x 3
Autoscroll
+/-
esc
set tempo
stop
Contributor
Difficulty
Tuning
intermediate
D# G# C# F# A# D#
Hey! There's an official Ultimate Guitar app which is ideal
for learning songs when you're away from computer. Get the app
WARNING: You are trying to view
                                    content from Ultimate-Guitar.com
                                    in an unauthorized application,
                                    which is prohibited.

                                    Please use an official Ultimate
                                    Guitar Tabs application for iPhone,
                                    iPad or Android to access legitimate
                                    chords, guitar, bass, and drum tabs
                                    from Ultimate-Guitar.com database.

                                    Type "ultimate guitar tabs" in Apple
                                    App Store's or Android Market's
                                    search to find the application.
-----------------------------------------------------------------------------
                             You're It - Gabe Bondoc
-----------------------------------------------------------------------------
Tabbed by: Gucci Mane
Email:

Tuning: Half Step Down

Hey! This is my first tab, I'm pretty sure this is right. Leave comments for any 
questions or corrections! Thanks

Intro:
e|------------------5-------7----5----5\----|
B|----------3-------5-------7----5----5\----|
G|----------4-------5-------7----5----5\----|
D|----------5-------5-------7----5----5\----|
A|----------5-------7-------9----7----5\----|
E|--12\\\3--3----5--5----7--7----5----5\----|

Verse:                               2X Only
e|-------------5-------7--6--5----5--|--0--|
B|-----3-------5-------7--6--5----5--|--3--|
G|-----4-------5-------7--6--5----5--|--0--|
D|-----5-------5-------7--6--5----5--|--0--|
A|-----5-------7-------9--8--7----5--|--2--|
E|--3--3----5--5----7--7--6--5----5--|--0--|

Pre-Chorus:         3X Only
e|--0----0----0----|--0----0\----|
B|--3----3----3----|--1----3\----|
G|--0----0----0----|--2----0\----|
D|--2----4----2----|--3----4\----|
A|--3----5----2----|--3----5\----|
E|--0----0----0----|--1----0\----|

Chorus:                             Slide down palm-mute on the 2X
e|----------5~------7~--7--6--5----5--|
B|--3~------5~------7~--7--6--5----5--|
G|--4~------5~------7~--7--6--5----5--|
D|--5~------5~------7~--7--6--5----5--|
A|--5~------7~------9~--9--8--7----5--|
E|--3~------5~------7~--7--6--5----5--|

Post-Chorus Riff: () = Palm mute
e|---------------------------7----------7-5--5\----|
B|-----3---------------------7h8-7h8p7--7-5--5\----|
G|-----4---------------------7---7----7-7-5--5\----|
D|-----5---------------------7h9-9------7-5--5\----|
A|-----5--------(2)-(5)/(7)--7--7-------9-7--5\----|
E|--3--3--(3)-(5)-----------0-----------7-5--5\----|

Verse:                               2X Only
e|-------------5-------7--6--5----5--|--0--|
B|-----3-------5-------7--6--5----5--|--3--|
G|-----4-------5-------7--6--5----5--|--0--|
D|-----5-------5-------7--6--5----5--|--0--|
A|-----5-------7-------9--8--7----5--|--2--|
E|--3--3----5--5----7--7--6--5----5--|--0--|

Pre-Chorus:         3X Only
e|--0----0----0----|--0----0\----|
B|--3----3----3----|--1----3\----|
G|--0----0----0----|--2----0\----|
D|--2----4----2----|--3----4\----|
A|--3----5----2----|--3----5\----|
E|--0----0----0----|--1----0\----|

Chorus:                             Slide down palm-mute on the 2X
e|----------5~------7~--7--6--5----5--|
B|--3~------5~------7~--7--6--5----5--|
G|--4~------5~------7~--7--6--5----5--|
D|--5~------5~------7~--7--6--5----5--|
A|--5~------7~------9~--9--8--7----5--|
E|--3~------5~------7~--7--6--5----5--|

Bridge: Repeat 2X    3X
e|--7--7-6-5--5-6--|--7--7-6-5-------0\--|
B|--7--7-6-5--5-6--|--7--7-6-5----3--3\--|
G|--7--7-6-5--5-6--|--7--7-6-5----0--0\--|
D|--7--7-6-5--5-6--|--7--7-6-5----2--4\--|
A|--9--9-8-7--7-8--|--9--9-8-7----3--5\--|
E|--7--7-6-5--5-6--|--7--7-6-5-------0\--|

Post-Chorus Riff: () = Palm mute
e|---------------------------7----------7-5--5\----|
B|-----3---------------------7h8-7h8p7--7-5--5\----|
G|-----4---------------------7---7----7-7-5--5\----|
D|-----5---------------------7h9-9------7-5--5\----|
A|-----5--------(2)-(5)/(7)--7--7-------9-7--5\----|
E|--3--3--(3)-(5)-----------0-----------7-5--5\----|

Chorus (Variation):                             
e|----------5~------7~--7--6--x----x-\----|
B|--3~------5~------7~--7--6--8----8-\----|
G|--4~------5~------7~--7--6--9----9-\----|
D|--5~------5~------7~--7--6--10---10\----|
A|--5~------7~------9~--9--8--10---0-\----|
E|--3~------5~------7~--7--6--8----8-\----|

Post-Chorus Riff: () = Palm mute
e|---------------------------7----------7-5--5\----|
B|-----3---------------------7h8-7h8p7--7-5--5\----|
G|-----4---------------------7---7----7-7-5--5\----|
D|-----5---------------------7h9-9------7-5--5\----|
A|-----5--------(2)-(5)/(7)--7--7-------9-7--5\----|
E|--3--3--(3)-(5)-----------0-----------7-5--5\----|

-----------------------------------------------------------------------------

"You're It" - Gabe Bondoc/Ramiele Malubay

Verse 1:
We can build a fort out of pillows in our living room,
Play tag in the kitchen like we used to do,
I can hide, you seek...come find me.

We can take our bikes to the park, you know the one downtown?
Or we can swing in the swings until the sun goes down.
Nothing's changed...with age.

Pre-Chorus: 
You're still as lovely as the first day.
I told my mama you'd be mine one day.
I'd be your everything, could not wait,
I'm so happy to say I was right.

Chorus:
Cause you...are the only, for me, I've known for so long
And you...make me feel right, child like I'm right where I belong
With you

Verse 2:
Teach me how to jump rope, I can teach you how to climb
Play ball, then you can help me color in the lines
Always knew, we'd make, a great team

I can be the cop, you're the robber since you stole my heart,
Or red rover I can wrap you up in my arms.
Or play house... in our house.

Pre-Chorus: 
You're still as lovely as the first day.
I told my mama you'd be mine one day.
I'd be your everything, could not wait,
I'm so happy to say I was right.

Chorus:
Cause you...are the only, for me, I've known for so long
And you...make me feel right, child like I'm right where I belong
With you

Bridge:
Pigtails and hand-me-downs
Couldn't disguise what you'd be
No, no, no...
I saw you then as I see you now
Perfect, lovely, worth it to me, all I'd ever need

Chorus:
Cause you...are the only, for me, I've known for so long
And you...make me feel right, child like I'm right where I belong
With you

************************************

| /   slide up
| \   slide down
| h   hammer-on
| p   pull-off
| ~   vibrato
| +   harmonic
| x   Mute note
| b   Bend
| pb  Pre-bend
| br  Bend release
| pbr Pre-bend release
| brb Bend release bend

************************************
comments
We did not receive enough feedback on this tab! Please rate:
print report bad tab
1 2 3 4 5
I want to post or [tab]
guest
You may want to rate the tab now too:
select rating
Please do not post tabs as comments. Select "correction" instead!