Oops, an error
Loading. Please wait.

Reverse Tab

7,608 views 15 this week
no commentswrite comment
1 2 3 4 5
excellent!
x 4
add to favorites launch autoscroll
font size
0
reset
Autoscroll
+/-
esc
set tempo
stop
Contributor
WARNING: You are trying to view
                                    content from Ultimate-Guitar.com
                                    in an unauthorized application,
                                    which is prohibited.

                                    Please use an official Ultimate
                                    Guitar Tabs application for iPhone,
                                    iPad or Android to access legitimate
                                    chords, guitar, bass, and drum tabs
                                    from Ultimate-Guitar.com database.

                                    Type "ultimate guitar tabs" in Apple
                                    App Store's or Android Market's
                                    search to find the application.
---------------------------------------------------------------------------------------
                        REVERSE: Gabrielle Aplin (studio version)
---------------------------------------------------------------------------------------
This is my first tab so if you find any mistakes feel free to contact me: lemonlevel@citromail.hu
---------------------------------------------------------------------------------------

Tuning: Standard EADGBe
Capo  - 3
Chords
G - 330023
F – 332002
Em – 330220
Csus – 33023x

INTRO

e|-----------------------------------------------------------------|
B|-----------------------------------------------------------------|
G|-------0-------0-------2-------2-------0-------0-------0-------0-|
D|---0-------0-------0-------0-------2-------2-------2-------2-----|
A|-----------------------------------------------------------------|
E|-3---3---3---3---2---2---2---2---0---0---0---0---0---0---0---0---|
       G               F                Em              Em
e|-----------------------------------------------------------------|
B|-----------------------------------------------------------------|
G|-------0-------0-------2-------2-------0-------0-------0-------0-|   
D|---2-------2-------0-------0-------0-------0-------0-------0-----|
A|-3---3---3---3---------------------------------------------------|
E|-----------------2---2---2---2---3---3---3---3---3---3---3---3---|
      Csus              F               G               G

VERSE

e|-----------------------------------------------------------------|
B|-----------------------------------------------------------------|
G|-------0-------0-------2-------2-------0-------0-------0-------0-|
D|---0-------0-------0-------0-------2-------2-------2-------2-----|
A|-----------------------------------------------------------------|
E|-3---3---3---3---2---2---2---2---0---0---0---0---0---0---0---0---|
       G               F                Em              Em

e|-----------------------------------------------------------------|
B|-----------------------------------------------------------------|
G|-------0-------0-------2-------2-------0-------0-------0-------0-|  x2   
D|---2-------2-------0-------0-------0-------0-------0-------0-----|
A|-3---3---3---3---------------------------------------------------|
E|-----------------2---2---2---2---3---3---3---3---3---3---3---3---|
      Csus              F               G               G

PRE CHORUS

e|-----------------------------------------------------------------|
B|-----------------------------------------------------------------|
G|-------0-------0-------2-------2-------0-------0-------0-------0-|    
D|---2-------2-------0-------0-------2-------2-------2-------2-----|
A|-3---3---3---3---------------------------------------------------|
E|-----------------2---2---2---2---0---0---0---0---0---0---0---0---|
       Csus             F               Em             Em

                                   Let Ring          Let Ring
e|-----------------------------------------------------------------|
B|-----------------------------------------------------------------|
G|-------0-------0-------2-------2------------------2--------------|    
D|---2-------2-------0-------0-----2-------------------------------|
A|-3---3---3---3---------------------------------------------------|
E|-----------------2---2---2---2---0----------------2--------------|
       Csus             F               Em             F

CHORUS

e|-----------------------------------------------------------------|
B|-----------------------------------------------------------------|
G|-------0-------0-------2-------2-------0-------0-------0-------0-|    x2
D|---2-------2-------0-------0-------2-------2-------2-------2-----|
A|-3---3---3---3---------------------------------------------------|
E|-----------------2---2---2---2---0---0---0---0---0---0---0---0---|
       Csus             F               Em             Em
                           
e|---------------------------------------------------------------------------------|
B|---------------------------------------------------------------------------------|
G|-------0-------0-------2-------2-------0-------0-------0-------0-------0-------0-|    
D|---2-------2-------0-------0-------0-------0-------2-------2-------2-------2-----|
A|-3---3---3---3-------------------------------------------------------------------|
E|-----------------2---2---2---2---3---3---2---2---0---0---0---0---0---0---0---0---|
       Csus              F               G             Em              Em

e|-----------------------------------------------------------------|
B|-----------------------------------------------------------------|
G|-------0-------0-------2-------2-------0-------0-------0-------0-|    
D|---2-------2-------0-------0-------2-------2-------2-------2-----|
A|-3---3---3---3---------------------------------------------------|
E|-----------------2---2---2---2---0---0---0---0---0---0---0---0---|
       Csus             F               Em             Em

  Let Ring         Let Ring
e|------------------------------|
B|------------------------------|
G|-0---------------2------------|   
D|------------------------------|
A|-3----------------------------|
E|-----------------2------------|
       Csus             F   
e|-----------------------------------------------------------------|
B|-----------------------------------------------------------------|
G|-------0-------0-------2-------2-------0-------0-------0-------0-|
D|---0-------0-------0-------0-------2-------2-------2-------2-----|
A|-----------------------------------------------------------------|
E|-3---3---3---3---2---2---2---2---0---0---0---0---0---0---0---0---|
       G               F                Em              Em
e|-----------------------------------------------------------------|
B|-----------------------------------------------------------------|
G|-------0-------0-------2-------2-------0-------0-------0-------0-|   
D|---2-------2-------0-------0-------0-------0-------0-------0-----|
A|-3---3---3---3---------------------------------------------------|
E|-----------------2---2---2---2---3---3---3---3---3---3---3---3---|
      Csus              F               G               G
VERSE

e|-----------------------------------------------------------------|
B|-----------------------------------------------------------------|
G|-------0-------0-------2-------2-------0-------0-------0-------0-|
D|---0-------0-------0-------0-------2-------2-------2-------2-----|
A|-----------------------------------------------------------------|
E|-3---3---3---3---2---2---2---2---0---0---0---0---0---0---0---0---|
       G               F                Em              Em
e|-----------------------------------------------------------------|
B|-----------------------------------------------------------------|
G|-------0-------0-------2-------2-------0-------0-------0-------0-| 
D|---2-------2-------0-------0-------0-------0-------0-------0-----|
A|-3---3---3---3---------------------------------------------------|
E|-----------------2---2---2---2---3---3---3---3---3---3---3---3---|
      Csus              F               G               G

e|-----------------------------------------------------------------|
B|-----------------------------------------------------------------|
G|-------0-------0-------2-------2-------0-------0-------0-------0-|
D|---0-------0-------0-------0-------2-------2-------2-------2-----|
A|-----------------------------------------------------------------|
E|-3---3---3---3---2---2---2---2---0---0---0---0---0---0---0---0---|
       G               F                Em              Em

                                                   Let Ring
e|-----------------------------------------------------------------|
B|-----------------------------------------------------------------|
G|-------0-------0-------2-------2-------0-------0-----------------| 
D|---2-------2-------0-------0-------2-------2-----0---------------|
A|-3---3---3---3---------------------------------------------------|
E|-----------------2---2---2---2---0---0---0---0---3---------------|
      Csus              F               Em              G

PRE CHORUS

e|-----------------------------------------------------------------|
B|-----------------------------------------------------------------|
G|-------0-------0-------2-------2-------0-------0-------0-------0-|    
D|---2-------2-------0-------0-------2-------2-------2-------2-----|
A|-3---3---3---3---------------------------------------------------|
E|-----------------2---2---2---2---0---0---0---0---0---0---0---0---|
       Csus             F               Em             Em

                                   Let Ring         Let Ring
e|-----------------------------------------------------------------|
B|-----------------------------------------------------------------|
G|-------0-------0-------2-------2------------------2--------------|    
D|---2-------2-------0-------0-----2-------------------------------|
A|-3---3---3---3---------------------------------------------------|
E|-----------------2---2---2---2---0----------------2--------------|
       Csus             F               Em             F

CHORUS

e|-----------------------------------------------------------------|
B|-----------------------------------------------------------------|
G|-------0-------0-------2-------2-------0-------0-------0-------0-|    x2
D|---2-------2-------0-------0-------2-------2-------2-------2-----|
A|-3---3---3---3---------------------------------------------------|
E|-----------------2---2---2---2---0---0---0---0---0---0---0---0---|
       Csus             F               Em             Em
                           
e|---------------------------------------------------------------------------------|
B|---------------------------------------------------------------------------------|
G|-------0-------0-------2-------2-------0-------0-------0-------0-------0-------0-|    
D|---2-------2-------0-------0-------0-------0-------2-------2-------2-------2-----|
A|-3---3---3---3-------------------------------------------------------------------|
E|-----------------2---2---2---2---3---3---2---2---0---0---0---0---0---0---0---0---|
       Csus              F               G             Em              Em

e|-----------------------------------------------------------------|
B|-----------------------------------------------------------------|
G|-------0-------0-------2-------2-------0-------0-------0-------0-|    
D|---2-------2-------0-------0-------2-------2-------2-------2-----|
A|-3---3---3---3---------------------------------------------------|
E|-----------------2---2---2---2---0---0---0---0---0---0---0---0---|
       Csus             F               Em             Em

e|---------------------------------------------------------------------------------|
B|---------------------------------------------------------------------------------|
G|-------0-------0-2-------------0-------0-------0-------0-------0-----------------|    
D|---2-------2---------------2-------2-------2-------2-------2-------2-------------|
A|-3---3---3---3-----------3---3---3---3---3---3---3---3---3---3---3---3---3-------|
E|-----------------2---------------------------------------------------------------|
       csus         F         Csus     

VERSE 3

e|---------------------------|
B|---------------------------|
G|---0---2---0---0---2---0---|
D|---------------------------|
A|---------------3-----------|
E|---3---2---0-------2---3---|
     G   F  Em Csus  F   G   


e|-----------------------------------------------------------------|
B|-----------------------------------------------------------------|
G|-------0-------0-------2-------2-------0-------0-------0-------0-|    
D|---2-------2-------0-------0-------2-------2-------2-------2-----|
A|-3---3---3---3---------------------------------------------------|
E|-----------------2---2---2---2---0---0---0---0---0---0---0---0---|
       Csus             F               Em             Em

e|--------------------------------------------------0---------------0---------------------|
B|----------------------------------------------------------------------------------------|
G|-------0-------0-------2------------------0---------------0---------------0-------------|    
D|---2-------2-------0-------0----------2-------2-------2-------2-------2-------2---------|
A|-3---3---3---3------------------3---3---3---3---3---3---3---3---3---3---3---3---3-------|
E|-----------------2---2---2---2----------------------------------------------------------|
       csus         F         Csus  

PRE CHORUS

e|-----------------------------------------------------------------|
B|-----------------------------------------------------------------|
G|-------0-------0-------2-------2-------0-------0-------0-------0-|    
D|---2-------2-------0-------0-------2-------2-------2-------2-----|
A|-3---3---3---3---------------------------------------------------|
E|-----------------2---2---2---2---0---0---0---0---0---0---0---0---|
       Csus             F               Em             Em

                                   Let Ring         Let Ring
e|-----------------------------------------------------------------|
B|-----------------------------------------------------------------|
G|-------0-------0-------2-------2------------------2--------------|    
D|---2-------2-------0-------0-----2-------------------------------|
A|-3---3---3---3---------------------------------------------------|
E|-----------------2---2---2---2---0----------------2--------------|
       Csus             F               Em             F

CHORUS

e|-----------------------------------------------------------------|
B|-----------------------------------------------------------------|
G|-------0-------0-------2-------2-------0-------0-------0-------0-|    x2
D|---2-------2-------0-------0-------2-------2-------2-------2-----|
A|-3---3---3---3---------------------------------------------------|
E|-----------------2---2---2---2---0---0---0---0---0---0---0---0---|
       Csus             F               Em             Em
                           
e|---------------------------------------------------------------------------------|
B|---------------------------------------------------------------------------------|
G|-------0-------0-------2-------2-------0-------0-------0-------0-------0-------0-|    
D|---2-------2-------0-------0-------0-------0-------2-------2-------2-------2-----|
A|-3---3---3---3-------------------------------------------------------------------|
E|-----------------2---2---2---2---3---3---2---2---0---0---0---0---0---0---0---0---|
       Csus              F               G             Em              Em

OUTRO

e|-------------------------------------------------|
B|-------------------------------------------------|
G|-0---------------2-------------------------------|    
D|---------------------------------2---------------| x2
A|-3-----------------------------------------------|
E|-----------------2---------------0---------------|
       Csus             F               Em   
comments
print report bad tab
I want to post or [tab]
guest
You may want to rate the tab now too:
select rating
Please do not post tabs as comments. Select "correction" instead!