Oops, an error
Loading. Please wait.

Silent Revelation Tab

ver1
ver1

Whole song

Interactive

More versions @911Tabs.com
12,142 views 12 this week
2 commentsread comments
1 2 3 4 5
excellent!
x 5
Autoscroll
+/-
esc
set tempo
stop
Contributor
Difficulty
advanced
Hey! There's an official Ultimate Guitar app which is ideal
for learning songs when you're away from computer. Get the app
WARNING: You are trying to view
                                    content from Ultimate-Guitar.com
                                    in an unauthorized application,
                                    which is prohibited.

                                    Please use an official Ultimate
                                    Guitar Tabs application for iPhone,
                                    iPad or Android to access legitimate
                                    chords, guitar, bass, and drum tabs
                                    from Ultimate-Guitar.com database.

                                    Type "ultimate guitar tabs" in Apple
                                    App Store's or Android Market's
                                    search to find the application.
Yes, there are mistakes...most of them a rythmic.
Currently fixing mistakes...If any
notes are incorrect or if you tab alternate parts (ie keyboard or bass), please tell me 
e-mail and I'll fix or add.
(stephenwalker1988@gmail.com) Have fun!
(Don't forget to credit me once you post a vid of yourself
playing this on youtube! xp)

                              Silent Revelation


                                                                       Galneryus
Lead Guitar

               Q      Q     E.   E.   E      Q.       E   H
D#||-------|--12b------------------------|-----------12--12~--------|
A#||-------|---------10----10---11---10--|--------------------------|
F#||-------|-----------------------------|--13~---------------------|
C#||-------|-----------------------------|--------------------------|
G#||-------|-----------------------------|--------------------------|
D#||-------|-----------------------------|--------------------------|


   Q     Q     E.   E.   E      Q.       E   H
--12------------------------|-----------10--10~--------|
-------------------10-------|--------------------------|
--------12----12--------12--|--10~---------------------|
----------------------------|--------------------------|
----------------------------|--------------------------|
----------------------------|--------------------------|


   S  S  S  S  S  S  S  S  S  S  S  S  S  S  S  S
--10-------10-12----10-12-13-10-12-13-15-12-13-15-|
-----11-13-------13-------------------------------|
--------------------------------------------------|
--------------------------------------------------|
--------------------------------------------------|
--------------------------------------------------|


   S  S  S  S  S  S  S  S  S  S  S  S  S  S  S  S
--17-13-15-17-18-15-17-18-18-17-15----17-15-------|
-----------------------------------18-------18-17-|
--------------------------------------------------|
--------------------------------------------------|
--------------------------------------------------|
--------------------------------------------------|


   S  S  S  S  S  S  S  S  S  S  S  S  S  S  S  S
--18-20-18-17----17-------------------------------|
--------------20----20-18-17-18-17----------------|
-----------------------------------19-17-19-17----|
-----------------------------------------------20-|
--------------------------------------------------|
--------------------------------------------------|


   S  S  S  S  S  S  S  S  S  S  S  S  S  S  S  S     W
--------------------------------------------------|---------------------|
--------------------------------------------------|---------------------|
-----17-------------------------------------------|---------------------|
--19----20-19-17-20-19-17----19-17-------17-------|---------------------|
--------------------------20-------20-19----20----|--17~----------------|
-----------------------------------------------20-|---------------------|


  E  E  E  E  E  E  E  E     Q.     H        E     H        Q    Q
--------------------------|---------------------|---------------------|
-----------6-----------6--|---------------------|---------------------|
--------7-----7--------7--|---------------------|---------------------|
-----7-----------7-----7--|--7------5--------L--|--L--------5----7----|
--5-----------------5--5--|--3------3--------L--|--L--------3----3----|
--------------------------|---------------------|---------------------|


  Q.     H        E     Q.     Q.      Q        Q    H.
---------------------|-----------------------|-------7------------|
---------------------|-----------------------|-------5------------|
---------------------|-----------------------|-------4------------|
--5------3--------L--|--5------3-------------|--------------------|
--2------2--------L--|--1------1-------------|--------------------|
---------------------|----------------10\----|--0-----------------|


             PM PM PM PM             PM PM PM PM       PM PM PM PM
  Q     Q    S  S  S  S  E  E     E  S  S  S  S  E  E  S  S  S  S  E
-------------------------------|--------------------------------------|
-------------------------------|--------------------------------------|
-------------------------------|--------------------------------------|
--7\---------------------7-----|--7--------------7--7--------------7--|
--4\---------4--4--4--4--4-----|--5--5--5--5--5--5--5--5--5--5--5--5--|
-------------------------------|--------------------------------------|


     PM PM PM PM    PM PM    PM PM
  E  S  S  S  S  E  S  S  E  S  S  E
--------------------------------------|
--------------------------------------|
--------------------------------------|
--7--------------7--------7--------7--|
--5--5--5--5--5--5--5--5--5--5--5--5--|
--------------------------------------|


     PM PM PM PM    PM PM PM PM    PM PM
  E  S  S  S  S  E  S  S  S  S  E  S  S
-----------------------------------------|
-----------------------------------------|
-----------------------------------------|
--7--------------5--------------7--------|
--3--3--3--3--3--3--3--3--3--3--3--3--3--|
-----------------------------------------|


  PM PM    PM PM PM PM    PM PM    PM PM
  S  S  E  S  S  S  S  E  S  S  E  S  S
-----------------------------------------|
-----------------------------------------|
-----------------------------------------|
--------5--------------5--------7--------|
--3--3--3--3--3--3--3--3--3--3--3--3--3--|
-----------------------------------------|


     PM PM PM PM    PM PM PM PM PM PM PM PM
  E  S  S  S  S  E  S  S  S  S  S  S  S  S
--------------------------------------------|
--------------------------------------------|
--------------------------------------------|
--5--------------3--------------------------|
--2--2--2--2--2--2--2--2--2--2--2--2--2--2--|
--------------------------------------------|


     PM PM PM PM    PM PM PM PM
  E  S  S  S  S  E  S  S  S  S   Q        Q    H.
---------------------------------------|-------7------------|
---------------------------------------|-------5------------|
---------------------------------------|-------4------------|
--5--------------3---------------------|--------------------|
--1--1--1--1--1--1--1--1--1--1--10\----|--------------------|
---------------------------------------|--0-----------------|


                                           PM PM    PM PM    PM PM    PM PM
  Q     E   E   S  S S S  S  S  S  S    E  S  S  E  S  S  E  S  S  E  S  S
-------------------------------------|--------------------------------------|
-------------------------------------|--------------------------------------|
-------------------------------------|--------------------------------------|
--7\-------14\--7-10-8-7-------------|--------------------------------------|
--4\---------------------10-12-10----|--------------------------------------|
----------------------------------12-|--6--6--6--6--6--6--6--6--6--6--6--6--|


     PM PM    PM PM                   PM PM    PM PM    PM PM    PM PM
  E  S  S  E  S  S  E  E  E  E     E  S  S  E  S  S  E  S  S  E  S  S
--------------------------------|--------------------------------------|
--------------------------------|--------------------------------------|
--------------------------------|--------------------------------------|
--------------------------------|--------------------------------------|
--------------------------------|--------------------------------------|
--6--6--6--6--6--6--6--5--6--7--|--8--8--8--8--8--8--8--8--8--8--8--8--|


     PM PM    PM PM      SH   SH   SH       PM PM    PM PM
  E  S  S  E  S  S  E    E    E    E     E  S  S  E  S  S  E  E  E  E
--------------------------------------|--------------------------------|
--------------------------------------|--------------------------------|
--------------------------------------|--------------------------------|
--------------------------------------|--------------------------------|
--------------------------------------|--------------------------------|
--8--8--8--8--8--8--8--<>6--<>5--<>3--|--1--1--1--1--1--1--1--0--1--3--|


  H        Q     Q       E  E  E  E  E  E  E  E     H        H
----------------------|--------------------------|--------------------|
----------------------|-----------6-----------6--|--------------------|
--2--------------2----|--------7-----7--------7--|--------------------|
--2--------------2----|-----7-----------7-----7--|--7--------5--------|
--0--------------0----|--5-----------------5--5--|--3--------3--------|
-----------3b---------|--------------------------|--------------------|


     PM PM    PM PM    PM PM    PM PM       PM PM    PM PM
  E  S  S  E  S  S  E  S  S  E  S  S     E  S  S  E  S  S  E  E  E  E
--------------------------------------|--------------------------------|
--------------------------------------|--------------------------------|
--------------------------------------|--------------------------------|
--3-----------------------------------|--------------------------------|
--1--1--1--1--1--1--1--1--1--1--1--1--|--1--1--1--1--1--1--1--0--1--2--|
--------------------------------------|--------------------------------|


     PM PM    PM PM    PM PM    PM PM       PM PM    PM PM      SH   SH   SH
  E  S  S  E  S  S  E  S  S  E  S  S     E  S  S  E  S  S  E    E    E    E
--------------------------------------|--------------------------------------|
--------------------------------------|--------------------------------------|
--------------------------------------|--------------------------------------|
--------------------------------------|--------------------------------------|
--3--3--3--3--3--3--3--3--3--3--3--3/-|--7--7--7--7--7--7--7--<>5--<>3-------|
--------------------------------------|---------------------------------<>3--|


     PM PM    PM PM    PM PM    PM PM       PM PM    PM PM
  E  S  S  E  S  S  E  S  S  E  S  S     E  S  S  E  S  S  E  E  E  E
--------------------------------------|--------------------------------|
--------------------------------------|--------------------------------|
--------------------------------------|--------------------------------|
--------------------------------------|--------------------------------|
--3-----------------------------------|--------------------------------|
--1--1--1--1--1--1--1--1--1--1--1--1--|--1--1--1--1--1--1--1--0--1--3--|


  H        Q    Q        H          E   S  S  S  S  S  S
---------------------|--------------------------------10-|
---------------------|-----------------------10-12-13----|
---------------------|--14----------L--10-12-------------|
--7--------7----7----|--14~------------------------------|
--7--------7----7----|--12~---------L--------------------|
--5--------5----5----|-----------------------------------|


   Q      Q     E.   E.   E      Q.       E   H
--12b------------------------|-----------12--12~--------|
---------10----10---11---10--|--------------------------|
-----------------------------|--13~---------------------|
-----------------------------|--------------------------|
-----------------------------|--------------------------|
-----------------------------|--------------------------|


   Q     Q     E.   E.   E      Q.       E   H
--12------------------------|-----------10--10~--------|
-------------------10-------|--------------------------|
--------12----12--------12--|--10~---------------------|
----------------------------|--------------------------|
----------------------------|--------------------------|
----------------------------|--------------------------|


   S  S  S  S  S  S  S  S  S  S  S  S  S  S  S  S
--10-------10-12----10-12-13-10-12-13-15-12-13-15-|
-----11-13-------13-------------------------------|
--------------------------------------------------|
--------------------------------------------------|
--------------------------------------------------|
--------------------------------------------------|


   S  S  S  S  S  S  S  S  S  S  S  S  S  S  S  S
--17-13-15-17-18-15-17-18-18-17-15----17-15-------|
-----------------------------------18-------18-17-|
--------------------------------------------------|
--------------------------------------------------|
--------------------------------------------------|
--------------------------------------------------|


   S  S  S  S  S  S  S  S  S  S  S  S  S  S  S  S
--18-20-18-17----17-------------------------------|
--------------20----20-18-17-18-17----------------|
-----------------------------------19-17-19-17----|
-----------------------------------------------20-|
--------------------------------------------------|
--------------------------------------------------|


   S  S  S  S  S  S  S  S  S  S  S  S  S  S  S  S     W
--------------------------------------------------|---------------------|
--------------------------------------------------|---------------------|
-----17-------------------------------------------|---------------------|
--19----20-19-17-20-19-17----19-17-------17-------|---------------------|
--------------------------20-------20-19----20----|--17~----------------|
-----------------------------------------------20-|---------------------|


     PM PM PM PM    PM PM    PM PM
  E  S  S  S  S  E  S  S  E  S  S  E
--------------------------------------|
--------------------------------------|
--------------------------------------|
--7--------------7--------7--------7--|
--5--5--5--5--5--5--5--5--5--5--5--5--|
--------------------------------------|


     PM PM PM PM    PM PM PM PM    PM PM
  E  S  S  S  S  E  S  S  S  S  E  S  S
-----------------------------------------|
-----------------------------------------|
-----------------------------------------|
--7--------------5--------------7--------|
--3--3--3--3--3--3--3--3--3--3--3--3--3--|
-----------------------------------------|


  PM PM    PM PM PM PM    PM PM    PM PM
  S  S  E  S  S  S  S  E  S  S  E  S  S
-----------------------------------------|
-----------------------------------------|
-----------------------------------------|
--------5--------------5--------7--------|
--3--3--3--3--3--3--3--3--3--3--3--3--3--|
-----------------------------------------|


     PM PM PM PM    PM PM PM PM PM PM PM PM
  E  S  S  S  S  E  S  S  S  S  S  S  S  S
--------------------------------------------|
--------------------------------------------|
--------------------------------------------|
--5--------------3--------------------------|
--2--2--2--2--2--2--2--2--2--2--2--2--2--2--|
--------------------------------------------|


     PM PM PM PM    PM PM PM PM
  E  S  S  S  S  E  S  S  S  S   Q        Q    H.
---------------------------------------|-------7------------|
---------------------------------------|-------5------------|
---------------------------------------|-------4------------|
--5--------------3---------------------|--------------------|
--1--1--1--1--1--1--1--1--1--1--10\----|--------------------|
---------------------------------------|--0-----------------|


                                           PM PM    PM PM    PM PM    PM PM
  Q     E   E   S  S S S  S  S  S  S    E  S  S  E  S  S  E  S  S  E  S  S
-------------------------------------|--------------------------------------|
-------------------------------------|--------------------------------------|
-------------------------------------|--------------------------------------|
--7\-------14\--7-10-8-7-------------|--------------------------------------|
--4\---------------------10-12-10----|--------------------------------------|
----------------------------------12-|--6--6--6--6--6--6--6--6--6--6--6--6--|


     PM PM    PM PM                   PM PM    PM PM    PM PM    PM PM
  E  S  S  E  S  S  E  E  E  E     E  S  S  E  S  S  E  S  S  E  S  S
--------------------------------|--------------------------------------|
--------------------------------|--------------------------------------|
--------------------------------|--------------------------------------|
--------------------------------|--------------------------------------|
--------------------------------|--------------------------------------|
--6--6--6--6--6--6--6--5--6--7--|--8--8--8--8--8--8--8--8--8--8--8--8--|


     PM PM    PM PM      SH   SH   SH       PM PM    PM PM
  E  S  S  E  S  S  E    E    E    E     E  S  S  E  S  S  E  E  E  E
--------------------------------------|--------------------------------|
--------------------------------------|--------------------------------|
--------------------------------------|--------------------------------|
--------------------------------------|--------------------------------|
--------------------------------------|--------------------------------|
--8--8--8--8--8--8--8--<>6--<>5--<>3--|--1--1--1--1--1--1--1--0--1--3--|


  H        Q     Q       E  E  E  E  E  E  E  E     H        H
----------------------|--------------------------|--------------------|
----------------------|-----------6-----------6--|--------------------|
--2--------------2----|--------7-----7--------7--|--------------------|
--2--------------2----|-----7-----------7-----7--|--7--------5--------|
--0--------------0----|--5-----------------5--5--|--3--------3--------|
-----------3b---------|--------------------------|--------------------|


     PM PM    PM PM    PM PM    PM PM       PM PM    PM PM
  E  S  S  E  S  S  E  S  S  E  S  S     E  S  S  E  S  S  E  E  E  E
--------------------------------------|--------------------------------|
--------------------------------------|--------------------------------|
--------------------------------------|--------------------------------|
--3-----------------------------------|--------------------------------|
--1--1--1--1--1--1--1--1--1--1--1--1--|--1--1--1--1--1--1--1--0--1--2--|
--------------------------------------|--------------------------------|


     PM PM    PM PM    PM PM    PM PM       PM PM    PM PM      SH   SH   SH
  E  S  S  E  S  S  E  S  S  E  S  S     E  S  S  E  S  S  E    E    E    E
--------------------------------------|--------------------------------------|
--------------------------------------|--------------------------------------|
--------------------------------------|--------------------------------------|
--------------------------------------|--------------------------------------|
--3--3--3--3--3--3--3--3--3--3--3--3/-|--7--7--7--7--7--7--7--<>5--<>3-------|
--------------------------------------|---------------------------------<>3--|


     PM PM    PM PM    PM PM    PM PM       PM PM    PM PM
  E  S  S  E  S  S  E  S  S  E  S  S     E  S  S  E  S  S  E  E  E  E
--------------------------------------|--------------------------------|
--------------------------------------|--------------------------------|
--------------------------------------|--------------------------------|
--------------------------------------|--------------------------------|
--3-----------------------------------|--------------------------------|
--1--1--1--1--1--1--1--1--1--1--1--1--|--1--1--1--1--1--1--1--0--1--3--|


                                                                          ^
                                     |-----3-----|
  H        Q    Q        Q     Q     Q     Q     Q        H.              Q
---------------------|--------------------------------|-----------------<>1----|
---------------------|--------------------------------|-----------------<>1----|
---------------------|--14----14----14----14----14----|-----------------<>2----|
--7--------7----7----|--14----14----14----14----14----|-----------------<>3----|
--7--------7----7----|--12----12----12----12----12----|-----------------<>3----|
--5--------5----5----|--------------------------------|--12\------------<>1----|


    ^
    W                   E  E  E  Q    Q    E     E  E  E  Q    Q    E
--<>L----------------|--1---------------------|-----------3------------|
--<>L----------------|-----1------------------|----------------3-------|
--<>L----------------|--------2---------------|---------------------3--|
--<>L----------------|-----------3------------|--------5---------------|
--<>L----------------|----------------3-------|-----5------------------|
--<>L----------------|---------------------1--|--3---------------------|


  W                    W                    Q     Q     Q    Q
--------------------|--5----------------|-------------------------|
--------------------|--x----------------|-------------------------|
--------------------|--2----------------|--14----12----10----9----|
--5~----------------|-------------------|---x-----x-----x----x----|
--------------------|-------------------|--12----10-----8----7----|
--------------------|-------------------|-------------------------|


  E  E  E  E  E  E  E  E     H        Q    Q       E  E  E  Q    Q    E
--------------------------|---------------------|-----------1------------|
-----------6-----------6--|---------------------|----------------1-------|
--------7-----7--------7--|---------------------|---------------------2--|
-----7-----------7-----7--|--7--------5----7----|--------3---------------|
--5-----------------5--5--|--3--------3----4----|-----3------------------|
--------------------------|---------------------|--1---------------------|


  E  Q    E  Q    Q       E  E  E  Q    Q    E     H.            Q
-----1-----------------|-----------3------------|----------------------|
----------1------------|----------------3-------|----------------------|
-------------2---------|---------------------3--|----------------------|
--3--------------------|--------5---------------|--5-------------------|
------------------3----|-----5------------------|----------------------|
-----------------------|--3---------------------|---------------15\----|


     PM PM    PM PM    PM PM    PM PM       PM PM    PM PM    PM PM    PM PM
  E  S  S  E  S  S  E  S  S  E  S  S     E  S  S  E  S  S  E  S  S  E  S  S
--------------------------------------|--------------------------------------|
--------------------------------------|--------------------------------------|
--------------------------------------|--------------------------------------|
--------------------------------------|--------------------------------------|
--------------------------------------|--------------------------------------|
--8--8--8--8--8--8--8--8--8--8--8--8--|--8--8--8--8--8--8--8--8--8--8--8--8--|


      PM PM    PM PM    PM PM    PM PM       PM PM    PM PM    PM PM    PM PM
   E  S  S  E  S  S  E  S  S  E  S  S     E  S  S  E  S  S  E  S  S  E  S  S
---------------------------------------|--------------------------------------|
---------------------------------------|--------------------------------------|
---------------------------------------|--------------------------------------|
---------------------------------------|--------------------------------------|
--12-----------------------------------|--------------------7--7--7-----------|
---9--9--9--9--9--9--9--9--9--9--9--9--|--9--9--9--5--5--5-----------5--5--5--|


  S  S S S  S S  S S S  S S S  S S  S S
----------------------------------------|
----------------------------------------|
--9-10-9-7----7-------------------------|
-----------10---10-8-7-10-8-7----7------|
------------------------------10---10-8-|
----------------------------------------|


                       SH   SH   SH   SH   SH   SH
                       |----3----|    |----3----|
  S  S S S  S S  S S   E    E    E    E    E    E
---------------------------------------------------|
---------------------------------------------------|
---------------------------------------------------|
---------------------------------------------------|
--7-10-8-7----7----------------<>5------------<>4--|
-----------10---10-8-<>6--<>8-------<>5--<>7-------|


  PM PM PM   SH       PM PM    PM   SH       PM PM PM
  E  E  E    E   Q    E  E     E    E   Q    E  E  E  E
----------------------------|----------------------------|
----------------------------|----------------------------|
-----------<>7~--L----------|-----<>5~--L----------------|
--------7-------------------|--7-------------------5--8--|
--5--8----------------5--8--|----------------5--8--------|
----------------------------|----------------------------|


  PM PM PM   SH       PM PM    PM   SH       PM PM PM
  E  E  E    E   Q    E  E     E    E   Q    E  E  E  E
----------------------------|----------------------------|
----------------------------|----------------------------|
-----------<>7~--L----------|-----<>5~--L----------------|
--------7-------------------|--7-------------------5--8--|
--5--8----------------5--8--|----------------5--8--------|
----------------------------|----------------------------|


  PM PM PM   SH       PM PM    PM   SH       PM PM PM
  E  E  E    E   Q    E  E     E    E   Q    E  E  E  E
----------------------------|----------------------------|
-----------<>5~--L----------|----------------------------|
----------------------------|-----<>7~--L----------------|
--------7-------------------|--7-------------------5--8--|
--5--8----------------5--8--|----------------5--8--------|
----------------------------|----------------------------|


  PM PM PM   SH       PM PM    PM   SH       PM PM PM
  E  E  E    E   Q    E  E     E    E   Q    E  E  E  E
----------------------------|----------------------------|
-----------<>5~--L----------|----------------------------|
----------------------------|-----<>7~--L----------------|
--------7-------------------|--7-------------------5--8--|
--5--8----------------5--8--|----------------5--8--------|
----------------------------|----------------------------|


    SH   SH   SH   SH         SH   SH      SH   SH         SH   SH   SH   SH
    E    E    E    E   Q      E    E       E    E   Q      E    E    E    E
--------------------------------------|--------------------------------------|
--------------------------------------|--------------------------------------|
-----------------<>7~--L--------------|-------<>5~--L------------------------|
------------<>7-----------------------|--<>7-----------------------<>5--<>8--|
--<>5--<>8------------------<>5--<>8--|------------------<>5--<>8------------|
--------------------------------------|--------------------------------------|


    SH   SH   SH   SH         SH   SH      SH   SH         SH   SH   SH   SH
    E    E    E    E   Q      E    E       E    E   Q      E    E    E    E
--------------------------------------|--------------------------------------|
--------------------------------------|--------------------------------------|
-----------------<>7~--L--------------|-------<>5~--L------------------------|
------------<>7-----------------------|--<>7-----------------------<>5--<>8--|
--<>5--<>8------------------<>5--<>8--|------------------<>5--<>8------------|
--------------------------------------|--------------------------------------|


    SH   SH   SH   SH        SH   SH      SH   SH        SH   SH   SH   SH
    E    E    E    E  Q      E    E       E    E  Q      E    E    E    E
-------------------------------------|-------------------------------------|
-----------------<>5--L--------------|-------------------------------------|
-------------------------------------|-------<>7--L------------------------|
------------<>7----------------------|--<>7----------------------<>5--<>8--|
--<>5--<>8-----------------<>5--<>8--|-----------------<>5--<>8------------|
-------------------------------------|-------------------------------------|


    SH   SH   SH   SH        SH   SH      SH   SH        SH   SH   SH   SH
    E    E    E    E  Q      E    E       E    E  Q      E    E    E    E
-------------------------------------|-------------------------------------|
-----------------<>5--L--------------|-------------------------------------|
-------------------------------------|-------<>7--L------------------------|
------------<>7----------------------|--<>7----------------------<>5--<>8--|
--<>5--<>8-----------------<>5--<>8--|-----------------<>5--<>8------------|
-------------------------------------|-------------------------------------|


  PM PM PM PM PM PM PM PM PM PM    PM PM PM    PM PM PM PM PM PM
  E  E  E  E  E  E  S  S  S  S     E  E  E  E  S  S  S  S  E  E
--------------------------------|--------------------------------|
--------------------------------|--------------------------------|
--------------------------------|--------------------------------|
--7--5--------------------------|-----------4--------------------|
--------8--6--5--3--3--5--3--5--|--3--5--6-----3--5--3--5--3--5--|
--------------------------------|--------------------------------|


  PM    PM PM PM PM PM PM PM       PM PM PM PM PM PM PM    PM PM PM PM
  E  E  S  S  S  S  E  E  E  E     S  S  S  S  E  E  E  E  S  S  S  S
--------------------------------|--------------------------------------|
--------------------------------|--------------------------------------|
--------------------------------|--------------------------------------|
-----5-----------------------4--|-----------------------5--------------|
--6-----3--5--3--5--3--5--6-----|--3--5--3--5--3--5--6-----3--5--3--5--|
--------------------------------|--------------------------------------|


  PM PM PM    PM PM PM PM PM PM    PM    PM PM PM PM PM PM PM
  E  E  E  E  S  S  S  S  E  E     E  E  S  S  S  S  E  E  E  E
--------------------------------|--------------------------------|
--------------------------------|--------------------------------|
--------------------------------|--------------------------------|
-----------4--------------------|-----5-----------------------4--|
--3--5--6-----3--5--3--5--3--5--|--6-----3--5--3--5--3--5--6-----|
--------------------------------|--------------------------------|


  PM PM PM PM PM PM PM    PM PM PM PM    PM PM PM    PM PM PM PM PM PM
  S  S  S  S  E  E  E  E  S  S  S  S     E  E  E  E  S  S  S  S  E  E
--------------------------------------|--------------------------------|
--------------------------------------|--------------------------------|
--------------------------------------|--------------------------------|
-----------------------5--------------|-----------6--------------------|
--3--5--3--5--3--5--6-----5--7--5--7--|--5--7--8-----5--7--5--7--5--7--|
--------------------------------------|--------------------------------|


  PM    PM PM PM PM PM PM PM       PM PM PM PM PM PM PM    PM PM PM PM
  E  E  S  S  S  S  E  E  E  E     S  S  S  S  E  E  E  E  S  S  S  S
--------------------------------|--------------------------------------|
--------------------------------|--------------------------------------|
--------------------------------|--------------------------------------|
-----7-----------------------6--|-----------------------7--------------|
--8-----5--7--5--7--5--7--8-----|--5--7--5--7--5--7--8-----5--7--5--7--|
--------------------------------|--------------------------------------|


  PM PM PM    PM PM PM PM PM PM    PM    PM PM PM PM PM PM PM
  E  E  E  E  S  S  S  S  E  E     E  E  S  S  S  S  E  E  E  E
--------------------------------|--------------------------------|
--------------------------------|--------------------------------|
--------------------------------|--------------------------------|
-----------6--------------------|-----7-----------------------6--|
--5--7--8-----5--7--5--7--5--7--|--8-----5--7--5--7--5--7--8-----|
--------------------------------|--------------------------------|


  PM PM PM PM PM PM PM    PM PM PM PM             PM PM
  S  S  S  S  E  E  E  E  S  S  S  S     H        E  E  Q
--------------------------------------|----------------------|
--------------------------------------|----------------------|
--------------------------------------|----------------------|
-----------------------7--------------|----------------------|
--5--7--5--7--5--7--8-----5--7--5--7--|----------------------|
--------------------------------------|-----------5--5-------|


    S   S S S S   S  S  S  S   S  S  S  S  S  S   S
|----------------------10-13p-10--------------------|
|-------------------10-----------10-----------------|
|*------------7h-10-----------------10--------------|
|*----------7--------------------------12-----------|
|---------8-------------------------------12--------|
|---5h-10------------------------------------13p-10-|


   S   S  S  S  S   S  S  S  S   S  S  S   S  S  S  S
-------------------------13-17p-13--------------------|
----------------------15-----------15-----------------|
---------------10h-14-----------------14p-10----------|
------------12-------------------------------12-------|
---------12-------------------------------------12----|
--10h-13-------------------------------------------13-|


  S   S S S S   S  S  S  S   S  S  S  S S S  S
---------------------10-13p-10-----------------|
------------------11-----------11--------------|
------------7h-10-----------------10p-7--------|
----------8-----------------------------8------|
--------8---------------------------------8----|
--6h-10-------------------------------------10-|


  S   S  S  S S   S  S  S  S   S  S  S  S  S  S  S
-----------------------12-17p-12--------------------||
--------------------13-----------14-----------------||
--------------9h-12-----------------14-------------*||
-----------10--------------------------14----------*||
--------10--------------------------------16-12-----||
--8h-12-----------------------------------------12--||


                           |---6--|  |--6--|
  S   S  S  S S   S  S  S  S   S  S  S  S  S  Q
-----------------------12-17p-12-------------------|
--------------------13-----------14----------------|
--------------9h-12-----------------14-------------|
-----------10--------------------------14----------|
--------10--------------------------------16-12----|
--8h-12--------------------------------------------|


  S S S  S S S  S S S S  S S S  S S S     S S S  S S  S S S S  S S S  S S  S S
--------------------------------------|----------------------------------------|
--------------------------------------|----------------------------------------|
----------------------------------7-9-|--10-9-7----7---------------------------|
--8-7-8-10-8-7-------------7-8-10-----|---------10---10-8-7-8-10-8-7----7------|
---------------10-8-7-8-10------------|------------------------------10---10-8-|
--------------------------------------|----------------------------------------|


  S S S  S S  S S S S S S  S S  S S S
--------------------------------------|
--------------------------------------|
----9-7-------------------------------|
--------11-8-11-8-7-5-8-7-------------|
--7-----------------------10-8-10-7---|
------------------------------------9-|


   S  S  S  S  S  S  S  S  S  S  S  S  Q
---------------------------------------------|
---------------------------------------------|
-----------------------------12-15-12-14\----|
--------------------12-14-15-----------------|
-----------10-12-13--------------------------|
--10-12-13-----------------------------------|


   S  S  S  S  S  S  S  S  S  S  S  S  S  S  S  S
--------------------------------------------------|
--------------------------------------------15-17-|
--15-14-15-17-15-14----------------14-15-17-------|
--------------------17-15-14-15-17----------------|
--------------------------------------------------|
--------------------------------------------------|


   S  S  S  S  S  S  S  S  S  S  S  S  S  S  S  S
--------------------------------------------------|
--18-17-15----15----------------------------------|
-----------17----17-15-14-15-17-15-14----14-------|
--------------------------------------17----17-15-|
--------------------------------------------------|
--------------------------------------------------|


   S  S  S  E   S  S  S  S  S  S  S  S  S  S  S
---------------18-17-15----15-18----------------|
-----17-15-14-----------18-------17-15-18-17-15-|
------------------------------------------------|
--14--------------------------------------------|
------------------------------------------------|
------------------------------------------------|


   S  S  S  S  S  S  S  S  S  S  S  S  E    E
-----------------------------------------------|
-----------------------------------------------|
--17-19-17-15----17-15-------15----------------|
--------------19-------19-17----19-17----------|
--------------------------------------19s--12--|
-----------------------------------------------|


                        |-----5----| |--6--|  |--6-|
  S  S  S S  S S  S  S  S  S  S S  S S  S  S  S  S S
-----------------------------------------------------|
-----------------------------------------------------|
-----------------------------------------------------|
--------------------------12-10-8------------------8-|
----------8-10-8-10-12-12---------12-8-------10-12---|
--5-10-12------------------------------12-10---------|


                      |-----5----| |--6-| |--6--|
  S S  S S  S  S S  S S  S  S  S S S S  S S  S  S
--------------------------------------------------|
----------------------8-10-11-10-8----------------|
---------9-10----9-10--------------9-8----9-10-11-|
--8-9-12------12-----------------------12---------|
--------------------------------------------------|
--------------------------------------------------|


         |--3--|        |--3--|     |--3--|
   S  S  S  S  S  S  S  S  S  S  S  S  S  S  S  Q
-----------------------------------10-12-12-11b-L----|
--10-11----10-11-13-10----10-11-13-------------------|
--------12-------------12----------------------------|
-----------------------------------------------------|
-----------------------------------------------------|
-----------------------------------------------------|


              |-----5-----|  |-----5-----|
   H          S  S  S  S  S  S  S  S  S  S
--13~--------------------------------------|
-------------------------------------------|
-------------------------------------------|
----------------------------14-15-17-15-14-|
-------------------------------------------|
-------------17-15-13-15-17----------------|


   |-----5-----|  |-----5-----|  |-----5-----|  |-----5-----|
   S  S  S  S  S  S  S  S  S  S  S  S  S  S  S  S  S  S  S  S
--------------------------------------------------------------|
-----------------------------------------------15-17-18-17-15-|
-----------------14-15-17-15-14-------------------------------|
--------------------------------17-15-14-15-17----------------|
--17-15-13-15-17----------------------------------------------|
--------------------------------------------------------------|


   |-----5-----|  |-----5-----|
   S  S  S  S  S  S  S  S  S  S  S  S  S  S  S  S  S  S
-----------------15-17-18-17-16-17-18-17-15----15-------|
--------------------------------------------18----18-17-|
--17-15-14-15-17----------------------------------------|
--------------------------------------------------------|
--------------------------------------------------------|
--------------------------------------------------------|


   |--6--|  |--6--|  |--6--|  |--6--|
   S  S  S  S  S  S  S  S  S  S  S  S  H
-----------15-17-18----------17-18-20-20b--------|
--15-17-18----------17-18-20---------------------|
-------------------------------------------------|
-------------------------------------------------|
-------------------------------------------------|
-------------------------------------------------|


                                           PM PM    PM PM    PM PM    PM PM
   E   S  E   S  E    Q       Q         E  S  S  E  S  S  E  S  S  E  S  S
--22b--L-22b--L-22b--22b----(24)\----|--------------------------------------|
-------------------------------------|--------------------------------------|
-------------------------------------|--------------------------------------|
-------------------------------------|--------------------------------------|
-------------------------------------|--8-----------------------------------|
-------------------------------------|--6--6--6--6--6--6--6--6--6--6--6--6--|


     PM PM    PM PM                    PM PM    PM PM    PM PM    PM PM
  E  S  S  E  S  S  E  E  E  E      E  S  S  E  S  S  E  S  S  E  S  S
--------------------------------|---------------------------------------|
--------------------------------|---------------------------------------|
--------------------------------|---------------------------------------|
--------------------------------|---------------------------------------|
--------------------------------|--10-----------------------------------|
--6--6--6--6--6--6--6--5--6--7--|---8--8--8--8--8--8--8--8--8--8--8--8--|


     PM PM    PM PM      SH   SH   SH       PM PM    PM PM
  E  S  S  E  S  S  E    E    E    E     E  S  S  E  S  S  E  E  E  E
--------------------------------------|--------------------------------|
--------------------------------------|--------------------------------|
--------------------------------------|--------------------------------|
--------------------------------------|--------------------------------|
--------------------------------------|--3-----------------------------|
--8--8--8--8--8--8--8--<>6--<>5--<>3--|--1--1--1--1--1--1--1--0--1--3--|


  H        Q     Q       E  E  E  E  E  E  E  E     H        H
----------------------|--------------------------|--------------------|
----------------------|-----------6-----------6--|--------------------|
--2--------------2----|--------7-----7--------7--|--------------------|
--2--------------2----|-----7-----------7-----7--|--7--------5--------|
--0--------------0----|--5-----------------5--5--|--3--------3--------|
-----------3b---------|--------------------------|--------------------|


     PM PM    PM PM    PM PM    PM PM       PM PM    PM PM
  E  S  S  E  S  S  E  S  S  E  S  S     E  S  S  E  S  S  E  E  E  E
--------------------------------------|--------------------------------|
--------------------------------------|--------------------------------|
--------------------------------------|--------------------------------|
--3-----------------------------------|--------------------------------|
--1--1--1--1--1--1--1--1--1--1--1--1--|--1--1--1--1--1--1--1--0--1--3--|
--------------------------------------|--------------------------------|


     PM PM    PM PM    PM PM    PM PM        PM PM    PM PM
  E  S  S  E  S  S  E  S  S  E  S  S      E  S  S  E  S  S  E  E  E  E
--------------------------------------|---------------------------------|
--------------------------------------|---------------------------------|
--------------------------------------|---------------------------------|
--5-----------------------------------|---------------------------------|
--3--3--3--3--3--3--3--3--3--3--3--3--|--/7--7--7--7--7--7--7--5--3-----|
--------------------------------------|------------------------------3--|


     PM PM    PM PM    PM PM    PM PM       PM PM    PM PM
  E  S  S  E  S  S  E  S  S  E  S  S     E  S  S  E  S  S  E  E  E  E
--------------------------------------|--------------------------------|
--------------------------------------|--------------------------------|
--------------------------------------|--------------------------------|
--------------------------------------|--------------------------------|
--3-----------------------------------|--------------------------------|
--1--1--1--1--1--1--1--1--1--1--1--1--|--1--1--1--1--1--1--1--0--1--3--|


                                                            ^             v
  E.  E.  E.  E.   Q         E.   E.   E.   E.   Q          H        Q    Q
-------------------------|-----------------------------|--<>0--------L----1----|
-------------------------|-----------------------------|--<>0--------L----1----|
-------------------------|--14---14---14---14----------|--<>0--------L----2----|
--7---7---7---7----------|--14---14---14---14----------|------------------3----|
--7---7---7---7---12\----|--12---12---12---12---12\----|------------------3----|
--5---5---5---5----------|-----------------------------|-----------------------|


  W                   E  E  E  Q    Q    E     E  E  E  Q    Q    E
--L----------------|--1---------------------|-----------3------------|
--L----------------|-----1------------------|----------------3-------|
--L----------------|--------2---------------|---------------------3--|
--L----------------|-----------3------------|--------5---------------|
-------------------|----------------3-------|-----5------------------|
-------------------|---------------------1--|--3---------------------|


  W                    W                    Q     Q     Q    Q
--------------------|--5----------------|-------------------------|
--------------------|--x----------------|-------------------------|
--------------------|--2----------------|--14----12----10----9----|
--5~----------------|-------------------|---x-----x-----x----x----|
--------------------|-------------------|--12----10-----8----7----|
--------------------|-------------------|-------------------------|


  E  E  E  E  E  E  E  E     H        H           E  E  E  Q    Q    E
--------------------------|--------------------|-----------1------------|
-----------6-----------6--|--------------------|----------------1-------|
--------7-----7--------7--|--------------------|---------------------2--|
-----7-----------7-----7--|--7--------5--------|--------3---------------|
--5-----------------5--5--|--3--------3--------|-----3------------------|
--------------------------|--------------------|--1---------------------|


  E  Q    E  Q    Q       E  E  E  Q    Q    E     H.            Q
-----1-----------------|-----------3------------|----------------------|
----------1------------|----------------3-------|----------------------|
-------------2---------|---------------------3--|----------------------|
--3--------------------|--------5---------------|--5-------------------|
------------------3----|-----5------------------|----------------------|
-----------------------|--3---------------------|---------------15\----|


     PM PM    PM PM    PM PM    PM PM       PM PM    PM PM    PM PM    PM PM
  E  S  S  E  S  S  E  S  S  E  S  S     E  S  S  E  S  S  E  S  S  E  S  S
--------------------------------------|--------------------------------------|
--------------------------------------|--------------------------------------|
--------------------------------------|--------------------------------------|
--5-----------------------------------|--------------------------------------|
--3--3--3--3--3--3--3--3--3--3--3--3--|--3--3--3--3--3--3--3--3--3--3--3--3--|
--------------------------------------|--------------------------------------|


     PM PM    PM PM
  E  S  S  E  S  S  E  S S E  S S    E   Q     E   E   S  S  S  S  S  S
----------------------------------|-------------------------------------|
----------------------------------|------2/----L------------------------|
----------------------------------|--6\--2/----L--14--14-14-14-14-14-14-|
--7-----------------7--7-7-7--7-7-|--7\--2/----L------------------------|
--4--4--4--4--4--4--4--4-4-4--4-4-|--4\-----------12--12-12-12-12-12-12-|
----------------------------------|-------------------------------------|


   S  S  S  S  S  S  S  S  S  S  S  S  S  S  S  S
--------------------------------------------------|
--------------------------------------------------|
--15-15-15-15-15-15-15-15-15-15-15-15-15-15-15-15-|
--------------------------------------------------|
--13-13-13-13-13-13-13-13-13-13-13-13-13-13-13-13-|
--------------------------------------------------|


   S  S  S  S  S  S  S  S  S  S  S  S  S  S  S  S
--------------------------------------------------|
--------------------------------------------------|
--15-15-15-15-15-15-15-15-15-15-15-15-14-14-14-14-|
--------------------------------------------------|
--13-13-13-13-13-13-13-13-13-13-13-13-12-12-12-12-|
--------------------------------------------------|


   S  S  S  S  S  S  S  S  S  S  S  S  S  S  S  S
--------------------------------------------------|
--------------------------------------------------|
--12-12-12-12-12-12-12-12-12-12-12-12-12-12-12-12-|
--------------------------------------------------|
--10-10-10-10-10-10-10-10-10-10-10-10-10-10-10-10-|
--------------------------------------------------|


   S  S  S  S  S  S  S  S  S  S  S  S  S  S  S  S
--------------------------------------------------|
--------------------------------------------------|
--12-12-12-12-12-12-12-12-12-12-12-12-14-14-15-15-|
--------------------------------------------------|
--10-10-10-10-10-10-10-10-10-10-10-10-12-12-13-13-|
--------------------------------------------------|


   S  S  S  S  S  S  S  S  S  S  S  S  S  S  S  S
--------------------------------------------------|
--------------------------------------------------|
--14-14-14-14-14-14-14-14-14-14-14-14-15-15-15-15-|
--------------------------------------------------|
--12-12-12-12-12-12-12-12-12-12-12-12-13-13-13-13-|
--------------------------------------------------|


   S  S  S  S  S  S  S  S  S  S  S  S S S S S
----------------------------------------------|
----------------------------------------------|
--14-14-14-14-12-12-12-12-10-10-10-10-9-9-9-9-|
----------------------------------------------|
--12-12-12-12-10-10-10-10--8--8--8--8-7-7-7-7-|
----------------------------------------------|


  S S S S S S S S S S S S S S S S
----------------------------------|
----------------------------------|
--7-7-7-7-7-7-7-7-9-9-9-9-9-9-9-9-|
----------------------------------|
--5-5-5-5-5-5-5-5-7-7-7-7-7-7-7-7-|
----------------------------------|


   S  S  S  S  S  S  S  S  S  S  S  S  S  S  S  S
--------------------------------------------------|
--------------------------------------------------|
--10-10-10-10-10-10-10-10-17-17-17-17-17-17-17-17-|
--------------------------------------------------|
---8--8--8--8--8--8--8--8-15-15-15-15-15-15-15-15-|
--------------------------------------------------|


   S  S  S  S  S  S  S  S  S  S  S  S  S  S  S  S
--------------------------------------------------|
--------------------------------------------------|
--15-15-15-15-15-15-15-15-15-15-15-15-15-15-15-15-|
--------------------------------------------------|
--13-13-13-13-13-13-13-13-13-13-13-13-13-13-13-13-|
--------------------------------------------------|


   S  S  S  S  S  S  S  S  S  S  S  S  S  S  S  S
--------------------------------------------------|
--------------------------------------------------|
--15-15-15-15-15-15-15-15-15-15-15-15-14-14-14-14-|
--------------------------------------------------|
--13-13-13-13-13-13-13-13-13-13-13-13-12-12-12-12-|
--------------------------------------------------|


   S  S  S  S  S  S  S  S  S  S  S  S  S  S  S  S
--------------------------------------------------|
--------------------------------------------------|
--12-12-12-12-12-12-12-12-12-12-12-12-12-12-12-12-|
--------------------------------------------------|
--10-10-10-10-10-10-10-10-10-10-10-10-10-10-10-10-|
--------------------------------------------------|


   S  S  S  S  S  S  S  S  Q     Q
---------------------------------------|
---------------------------------------|
--12-12-12-12-12-12-12-12-12-----------|
---------------------------------------|
--10-10-10-10-10-10-10-10-10----12\----|
---------------------------------------|


  S  S  S  S S   S  S  S  S  S  S  S  S  S  S  S
----------------------12-15-12-------------15-12-|
-------------------13----------13-------13-------|
-------------9S-12----------------12-12----------|
----------10-------------------------------------|
-------10----------------------------------------|
--8-12-------------------------------------------|


   S  S  S  S  S  S  S  S  S  S  S  S  S  S  E
--15-12----------------12-15-12-----------------|
--------13----------13----------13--------------|
-----------------12----------------12-----------|
--------------14----------------------14--------|
-----------15----------------------------15-----|
--------------------------------------------15--|


  S S S S   S S  S S  S  S  S  S  S  S  S  S
-------------------9-12----------------12----|
----------------10------14----------14----14-|
--------------9------------14----14----------|
--------7S-10-----------------14-------------|
------7--------------------------------------|
--5-8----------------------------------------|


   S  S  S  S  S  S  S  S  S  S  S  S  S  S  E
--15-12----------12-15-12-17-12-----------------|
--------14----14----------------14--------------|
-----------14----------------------14-----------|
--------------------------------------14--------|
-----------------------------------------16-----|
--------------------------------------------17--|


   Q      E   E   E  S  E  S  E      E   Q      E   H
---------------------------------|----------------------------|
---------------------------------|----------------------------|
--11~----11--12--14--L-12--L-11--|--14--14b-----L--14~--------|
---------------------------------|----------------------------|
---------------------------------|----------------------------|
---------------------------------|----------------------------|


   Q      E   E   E  S  E  S  E      E   Q     E   H
---------------------------------|---------------------------|
-----------------------------14--|--15--15b----L--15~--------|
--11~----11--13--15--L-16--L-----|---------------------------|
---------------------------------|---------------------------|
---------------------------------|---------------------------|
---------------------------------|---------------------------|


   Q     E   S  S  E  S  E  S  E      Q     E   E   Q     E   E
----------------------------------|------------------------------|
--12~----L--12-14-15--L-14--L-12--|--15~----L--------------------|
----------------------------------|------------14--14----12--11--|
----------------------------------|------------------------------|
----------------------------------|------------------------------|
----------------------------------|------------------------------|


   H           H             Q       Q        E   E   E   E
-------------------------|-----------------------------------|
------------xg14b--------|--14pb----14pbr----14--------------|
-------------------------|-----------------------16--14--12--|
--14---------------------|-----------------------------------|
-------------------------|-----------------------------------|
-------------------------|-----------------------------------|


   Q      E   E   E  S  E  S  E      E   Q      E   H
---------------------------------|----------------------------|
---------------------------------|----------------------------|
--11~----11--12--14--L-12--L-11--|--14--14b-----L--14~--------|
---------------------------------|----------------------------|
---------------------------------|----------------------------|
---------------------------------|----------------------------|


   Q      E   E   E  S  E  S  E      E   E   Q      E   E   E   E
---------------------------------|---------------------------------|
-----------------------------14--|--15------15b----15--14--12------|
--11~----11--13--15--L-16--L-----|------11---------------------14--|
---------------------------------|---------------------------------|
---------------------------------|---------------------------------|
---------------------------------|---------------------------------|


   Q     E   S  S  E  S  E  S  E      Q     E   S  S  E  S  E  S  E
----------------------------------|----------------------------------|
--12~----L--12-14-15--L-14--L-12--|--12~----L--12-14-15--L-14--L-12--|
----------------------------------|----------------------------------|
----------------------------------|----------------------------------|
----------------------------------|----------------------------------|
----------------------------------|----------------------------------|


   Q     E   S  S  E  S  E  S  E      H          H
----------------------------------|------------------------|
--14~----L--14-15-17--L-15--L-14--|--17~--------17~--------|
----------------------------------|------------------------|
----------------------------------|------------------------|
----------------------------------|------------------------|
----------------------------------|------------------------|


                    |-----3-----|
     Q       Q      Q     Q     Q       Q     E   E   H
--xg12b~-----------------------------|-----------12--12~--------|
------------10~----10----11----10----|--9~----L-----------------|
-------------------------------------|--------------------------|
-------------------------------------|--------------------------|
-------------------------------------|--------------------------|
-------------------------------------|--------------------------|


               |-----3----|
   Q     Q     Q     Q    Q       Q     E   E   H
--12~--------------------------|-----------10--10~--------|
---------8~----8----10----8----|--6~----L-----------------|
-------------------------------|--------------------------|
-------------------------------|--------------------------|
-------------------------------|--------------------------|
-------------------------------|--------------------------|


              |----3----|                   |-----3-----|
   Q     Q    Q    Q    Q       Q     E  E  Q     Q     Q
--10~-------------------5----|--6~----L-----9b----9----10----|
---------6----6----8---------|-----------6-------------------|
-----------------------------|-------------------------------|
-----------------------------|-------------------------------|
-----------------------------|-------------------------------|
-----------------------------|-------------------------------|


   H            Q      E   E     Q     E   E   E   E   E   E
--12b--------xg12br----L--10--|--9~----L------10------12------|
------------------------------|-----------10------10------10--|
------------------------------|-------------------------------|
------------------------------|-------------------------------|
------------------------------|-------------------------------|
------------------------------|-------------------------------|


   Q      Q     S E   E.    E      Q     E   E   H
---------17----17----17b---17--|--16~----L-----------------|
--18~--------------------------|------------17--17~--------|
-------------------------------|---------------------------|
-------------------------------|---------------------------|
-------------------------------|---------------------------|
-------------------------------|---------------------------|


   Q      Q     S E   E.    E      Q      E   E   H
---------15----15----15b---15--|----------------------------|
--17~--------------------------|--18~-----L--15--15~--------|
-------------------------------|----------------------------|
-------------------------------|----------------------------|
-------------------------------|----------------------------|
-------------------------------|----------------------------|


     H         Q       Q         Q     H         E   S  S
------------------------------|---------------------------|
--xg15b--------L----xg15br----|--L----15~--------L--------|
------------------------------|----------------------x-19-|
------------------------------|---------------------------|
------------------------------|---------------------------|
------------------------------|---------------------------|


  |-----5-----|  5  5  5 --- |--3--|  3  3       5
  S  S  S  S  S  S  S  S  S  S  S  S  S  S  Q    E
-------------------17-19----------17-19-20-22----L--|
----------17-18-20-------17-18-20-------------------|
--8-19-20-------------------------------------------|
----------------------------------------------------|
----------------------------------------------------|
----------------------------------------------------|


                   |-----3-----|
   H         Q     E     E     E        W
--22b--------L----22pb--22pb--22pb--|--22pb----------------|
------------------------------------|----------------------|
------------------------------------|----------------------|
------------------------------------|----------------------|
------------------------------------|----------------------|
------------------------------------|----------------------|


                                |-----3-----|
   H           Q     E   E      Q     Q     Q      E   Q    E
--22pbr--------L-----L--22--|--21----22----21S----17--17----L--|
----------------------------|----------------------------------|
----------------------------|----------------------------------|
----------------------------|----------------------------------|
----------------------------|----------------------------------|
----------------------------|----------------------------------|


   |--3--|  |--3--|  |--3--|  |--3--|
   S  S  S  S  S  S  S  S  S  S  S  S  H              W
--18-17-15----15-------------15-17-18-19br--------|--17----------------||
-----------18----17-15-17-18----------------------|--------------------||
--------------------------------------------------|--------------------||
--------------------------------------------------|--------------------||
--------------------------------------------------|--------------------||
--------------------------------------------------|--------------------||


Duration Legend
---------------
W - whole
H - half
Q - quarter
E - 8th
S - 16th
T - 32nd
X - 64th
. - note dotted
|-n-|  - n-tuplets


Tablature Legend
----------------
L - tied note
x - dead note
g - grace note
(n) - ghost note
> - accentuded note
NH - natural harmonic
AH - artificial harmonic
TH - tapped harmonic
SH - semi harmonic
PH - pitch harmonic
h - hammer on
p - pull off
b - bend
br - bendRelease
pb - preBend
pbr - preBendRelease
brb - bendReleaseBend
\n/ - tremolo bar dip
\n - tremolo bar dive
-/n - tremolo bar Release up
/n\ - tremolo bar inverted dip
/n - tremolo bar return
-\n - tremolo bar Release down
S - shift slide
s - legato slide
/ -  slide into from below or out of upwards
\ -  slide into from above or out of downwards
~ - vibrato
W - wide vibrato
tr - trill
TP - tremolo picking
T - tapping
S - slap
P - pop
< - fade in
^ - brush up
v - brush down
comments
print report bad tab
2 comments total.
0 reply
snowmanztah wrote on December 25 2007, 06:51 am

niiiiice

0 reply
TwinBroz wrote on August 10 2009, 06:46 pm

A lot of this isn't right, how did this get 5 stars. Check youtube for Syu's official demo to see how he plays it on Young Guitar. Just looking at the first note tells me its wrong.

I want to post or [tab]
guest
You may want to rate the tab now too:
select rating
Please do not post tabs as comments. Select "correction" instead!