Oops, an error
Loading. Please wait.

Struggle For The Freedom Flag Tab

ver1
ver1

Whole song

Interactive

More versions @911Tabs.com
6,167 views 9 this week
2 commentsread comments
1 2 3 4 5
excellent!
x 2
Autoscroll
+/-
esc
set tempo
stop
Difficulty
advanced
Hey! There's an official Ultimate Guitar app which is ideal
for learning songs when you're away from computer. Get the app
WARNING: You are trying to view
                                    content from Ultimate-Guitar.com
                                    in an unauthorized application,
                                    which is prohibited.

                                    Please use an official Ultimate
                                    Guitar Tabs application for iPhone,
                                    iPad or Android to access legitimate
                                    chords, guitar, bass, and drum tabs
                                    from Ultimate-Guitar.com database.

                                    Type "ultimate guitar tabs" in Apple
                                    App Store's or Android Market's
                                    search to find the application.
                        Struggle For The Freedom Flag                           


                                                                       Galneryus
Syu



      S S S S  S  S  S  S  S  S  S  S  S  S  S  S  
D#||----------------------------------------------|
A#||----------------------------------------------|
F#||----------------------------------------------|
C#||--0-0-0-0-15-15-15-15-14-14-14-14-12-12-12-12-|
G#||----------------------------------------------|
D#||----------------------------------------------|


   S  S  S  S S S S S S S S S S S S S  
--------------------------------------|
--------------------------------------|
--------------------------------------|
--10-10-10-10-8-8-8-8-7-7-7-7-5-5-5-5-|
--------------------------------------|
--------------------------------------|


  S S S S  S  S  S  S  S  S  S  S  S  S  S  S  
----------------------------------------------|
----------------------------------------------|
----------------------------------------------|
--0-0-0-0-17-17-17-17-15-15-15-15-14-14-14-14-|
----------------------------------------------|
----------------------------------------------|


   S  S  S  S  S  S  S  S S S S S S S S S  
------------------------------------------|
------------------------------------------|
------------------------------------------|
--12-12-12-12-10-10-10-10-8-8-8-8-7-7-7-7-|
------------------------------------------|
------------------------------------------|


  S S S S  S  S  S  S  S  S  S  S  S  S  S  S  
----------------------------------------------|
----------------------------------------------|
----------------------------------------------|
--0-0-0-0-19-19-19-19-17-17-17-17-15-15-15-15-|
----------------------------------------------|
----------------------------------------------|


   S  S  S  S  S  S  S  S  S  S  S  S  S  S  S  S  
--------------------------------------------------|
--------------------------------------------------|
--------------------------------------------------|
--14-14-14-14-13-13-13-13-12-12-12-12-11-11-11-11-|
--------------------------------------------------|
--------------------------------------------------|


   S  S  S  S  S  S  S  S  S  S  S  S  S  S  S  S  
-----------------------------12-13-15-15-12-13-15-|
--------------------11-13-15----------------------|
-----------10-12-14-------------------------------|
--11-12-14----------------------------------------|
--------------------------------------------------|
--------------------------------------------------|


                                      v     
   S  S  S  S  S  S  S  S  S  S  S  S Q     
--17-13-15-17-18-15-17-18-21-21-21-21------|
-------------------------------------------|
-------------------------------------------|
-------------------------------------------|
--------------------------------------x----|
-------------------------------------------|


      PM PM PM PM     PM PM PM PM     PM PM  
   E  S  S  S  S   E  S  S  S  S   E  S  S   
--------------------------------------------|
--10--------------11--------------13--------|
---7---------------7---------------7--------|
------0--0--0--0------0--0--0--0------0--0--|
--------------------------------------------|
--------------------------------------------|


  PM PM     PM PM PM PM     PM PM    PM PM  
  S  S   E  S  S  S  S   E  S  S  E  S  S   
-------------------------------------------|
--------11--------------10--------8--------|
---------7---------------7--------7--------|
--0--0------0--0--0--0------0--0-----0--0--|
-------------------------------------------|
-------------------------------------------|


      PM PM PM PM     PM PM PM PM     PM PM  
   E  S  S  S  S   E  S  S  S  S   E  S  S   
--------------------------------------------|
--10--------------13--------------11--------|
---7---------------7---------------7--------|
------0--0--0--0------0--0--0--0------0--0--|
--------------------------------------------|
--------------------------------------------|


      PM PM    PM PM    PM PM    PM PM  
   E  S  S  E  S  S  E  S  S  E  S  S   
---------------------------------------|
--10--------9--------8--------9--------|
---7--------7--------7--------7--------|
------0--0-----0--0-----0--0-----0--0--|
---------------------------------------|
---------------------------------------|


      PM PM PM PM     PM PM PM PM     PM PM  
   E  S  S  S  S   E  S  S  S  S   E  S  S   
--------------------------------------------|
--10--------------11--------------13--------|
---7---------------7---------------7--------|
------0--0--0--0------0--0--0--0------0--0--|
--------------------------------------------|
--------------------------------------------|


  PM PM     PM PM PM PM     PM PM    PM PM  
  S  S   E  S  S  S  S   E  S  S  E  S  S   
-------------------------------------------|
--------11--------------10--------8--------|
---------7---------------7--------7--------|
--0--0------0--0--0--0------0--0-----0--0--|
-------------------------------------------|
-------------------------------------------|


      PM PM PM PM     PM PM PM PM     PM PM                         
   E  S  S  S  S   E  S  S  S  S   E  S  S     Q    Q    Q    Q     
--------------------------------------------|----------------------|
--10--------------13--------------11--------|--3----6----5----8----|
---7---------------7---------------7--------|--3----3----5----5----|
------0--0--0--0------0--0--0--0------0--0--|----------------------|
--------------------------------------------|----------------------|
--------------------------------------------|----------------------|


  W                   W                    W                 
-------------------|-------------------|--------------------|
-------------------|-------------------|--------------------|
-------------------|-------------------|--------------------|
--7----------------|--3----------------|--10----------------|
--5----------------|--1----------------|---8----------------|
-------------------|-------------------|--------------------|


  W                   W                   W                 
-------------------|-------------------|-------------------|
-------------------|-------------------|-------------------|
-------------------|-------------------|-------------------|
--5----------------|--7----------------|--3----------------|
--3----------------|--5----------------|--1----------------|
-------------------|-------------------|-------------------|


   W                   W                 
--------------------|-------------------|
--------------------|-------------------|
--------------------|-------------------|
--10----------------|--5----------------|
---8----------------|--3----------------|
--------------------|-------------------|


     PM PM PM PM    PM PM                
  E  S  S  S  S  E  S  S  S  S  S S S S  
----------------------------------------|
----------------------------------------|
----------------------------------------|
--7--------------7--------7p-5p-3-------|
--5--5--5--5--5--5--5--5----------7-5-3-|
----------------------------------------|


     PM PM PM PM    PM PM                     PM PM PM PM                      
                                                                |--3--|        
  E  S  S  S  S  E  S  S  S  S  S S S S    E  S  S  S  S  E  E  S  S  S E  E   
----------------------------------------|-------------------------------------|
----------------------------------------|-------------------------------------|
--------------------------5p-3p-2-------|--5--------------5-------------------|
--3--------------3----------------5-3-2-|--3--3--3--3--3--3--3--2h-3p-2-------|
--1--1--1--1--1--1--1--1----------------|-------------------------------5--3--|
----------------------------------------|-------------------------------------|


  S  S  S  S S   S  S  S  S   S  S  S   Q     
----------------------12-15p-12--------------|
-------------------13-----------13-----------|
-------------9s-12-----------------12h-12----|
----------10---------------------------------|
-------10------------------------------------|
--8-12---------------------------------------|


     PM PM PM PM    PM PM                
  E  S  S  S  S  E  S  S  S  S  S S S S  
----------------------------------------|
----------------------------------------|
----------------------------------------|
--7--------------7--------7p-5p-3-------|
--5--5--5--5--5--5--5--5----------7-5-3-|
----------------------------------------|


     PM PM PM PM    PM PM                     PM PM PM PM                      
                                                                |--3--|        
  E  S  S  S  S  E  S  S  S  S  S S S S    E  S  S  S  S  E  E  S  S  S E  E   
----------------------------------------|-------------------------------------|
----------------------------------------|-------------------------------------|
--------------------------5p-3p-2-------|--5--------------5-------------------|
--3--------------3----------------5-3-2-|--3--3--3--3--3--3--3--2h-3p-2-------|
--1--1--1--1--1--1--1--1----------------|-------------------------------5--3--|
----------------------------------------|-------------------------------------|


  E  E  E  E  E  E  E  E     S S S S S S S S S S S S S S S S  
--------------------------|----------------------------------|
--------------------------|----------------------------------|
-----------------2--3--5--|----------5-5-3-3-2-2-------------|
--------2--3--5-----------|----------------------5-5-3-3-2-2-|
--3--5--------------------|--1-1-1-1-------------------------|
--------------------------|----------------------------------|


                                     PM PM PM PM    PM PM        PM PM      
  S S S S S S S S S S S S S S S S    S  S  S  S  E  S  S   E  E  S  S   E   
----------------------------------|----------------------------------------|
----------------------------------|----------------------------------------|
----------7-7-5-5-3-3-------------|--------------9--------10--9--------10--|
----------------------7-7-5-5-3-3-|--------------7---------7--7---------7--|
--3-3-3-3-------------------------|--5--5--5--5-----5--5---------5--5------|
----------------------------------|----------------------------------------|


     PM PM        PM PM                                              
  E  S  S   E  E  S  S   E  Q       S S S S S S S S S S S S S S S S  
---------------------------------|----------------------------------|
---------------------------------|----------------------------------|
--9--------10--9--------10--9----|----------5-5-3-3-2-2-------------|
--7---------7--7---------7--7----|----------------------5-5-3-3-2-2-|
-----5--5---------5--5-----------|--1-1-1-1-------------------------|
---------------------------------|----------------------------------|


  S S S S S S S S S S S S S S S S  
----------------------------------|
----------------------------------|
----------7-7-5-5-3-3-------------|
----------------------7-7-5-5-3-3-|
--3-3-3-3-------------------------|
----------------------------------|


     PM PM PM PM PM PM PM PM PM PM PM PM PM PM  
  E  S  S  S  S  S  S  S  S  S  S  S  S  S  S   
-----------------------------------------------|
-----------------------------------------------|
-----------------------------------------------|
--2--------------------------------------------|
--0--0--0--0--0--0--0--0--0--0--0--0--0--0--0--|
-----------------------------------------------|


                   PM PM PM PM PM PM  
  E  S S S S E  E  S  S  S  S  S  S   
-------------------------------------|
-------------------------------------|
-------------------------------------|
--3----3-L---3--5--------------------|
--1----1-L---1--3--3--3--3--3--3--3--|
-------------------------------------|


  S  S S S S  S  S S  S  S  S S  S S  S  S  
-------------------9-12p-9---------9-12p-9-|
----------------10---------10---10---------|
-----------6s-9---------------9------------|
---------7---------------------------------|
-------7-----------------------------------|
--5h-9-------------------------------------|


   S   S  S  S  S  S  S   S  S  S  S  S  S  S  S S    W                 
--15p-12----------12-15p-12-17-17-15-15-13-13-12-0-|-------------------|
---------14----14----------------------------------|-------------------|
------------14-------------------------------------|-------------------|
---------------------------------------------------|--7----------------|
---------------------------------------------------|--5----------------|
---------------------------------------------------|-------------------|


  W                   H        H           H        H         
-------------------|--------------------|-----------3--------|
-------------------|--------------------|-----------3--------|
-------------------|--------------------|-----------3--------|
--7----------------|--5-----------------|-----------5--------|
--3----------------|--1--------0--------|--5--------5--------|
-------------------|--------------------|--3--------3--------|


  H.           Q       W                   Q     E  E   E.  S E   E   
--------------------|-------------------|----------------------------|
--5-----------------|-------------------|--------------10------------|
--5-----------------|-------------------|-----------9-------9-L------|
--5-----------------|--5----------------|-------10---------------10--|
--3------------0----|--1----------------|--8-------------------------|
--------------------|-------------------|----------------------------|


   W                   W                   W                 
--------------------|-------------------|-------------------|
--10----------------|--2----------------|-------------------|
---9----------------|--2----------------|-------------------|
--10----------------|--2----------------|-------------------|
---8----------------|--0----------------|--7----------------|
--------------------|-------------------|--3----------------|


  W                   W                   Q    Q    Q    Q     
-------------------|-------------------|----------------------|
-------------------|-------------------|-----------------6----|
-------------------|-------------------|------------7---------|
--7----------------|--7----------------|-------7--------------|
--5----------------|--3----------------|----------------------|
-------------------|-------------------|--7-------------------|


  Q    Q    H           W                   W                 
---------------------|--5----------------|--5----------------|
---------------------|--5----------------|--5----------------|
--7------------------|--7----------------|--6----------------|
-------7-------------|--7----------------|--7----------------|
---------------------|--7----------------|--7----------------|
------------7--------|--5----------------|--5----------------|


      PM PM PM PM     PM PM PM PM     PM PM  
   E  S  S  S  S   E  S  S  S  S   E  S  S   
--------------------------------------------|
--10--------------11--------------13--------|
---7---------------7---------------7--------|
------0--0--0--0------0--0--0--0------0--0--|
--------------------------------------------|
--------------------------------------------|


  PM PM     PM PM PM PM     PM PM    PM PM  
  S  S   E  S  S  S  S   E  S  S  E  S  S   
-------------------------------------------|
--------11--------------10--------8--------|
---------7---------------7--------7--------|
--0--0------0--0--0--0------0--0-----0--0--|
-------------------------------------------|
-------------------------------------------|


      PM PM PM PM     PM PM PM PM     PM PM  
   E  S  S  S  S   E  S  S  S  S   E  S  S   
--------------------------------------------|
--10--------------13--------------11--------|
---7---------------7---------------7--------|
------0--0--0--0------0--0--0--0------0--0--|
--------------------------------------------|
--------------------------------------------|


      PM PM    PM PM    PM PM    PM PM  
   E  S  S  E  S  S  E  S  S  E  S  S   
---------------------------------------|
--10--------9--------8--------9--------|
---7--------7--------7--------7--------|
------0--0-----0--0-----0--0-----0--0--|
---------------------------------------|
---------------------------------------|


      PM PM PM PM     PM PM PM PM     PM PM  
   E  S  S  S  S   E  S  S  S  S   E  S  S   
--------------------------------------------|
--10--------------11--------------13--------|
---7---------------7---------------7--------|
------0--0--0--0------0--0--0--0------0--0--|
--------------------------------------------|
--------------------------------------------|


  PM PM     PM PM PM PM     PM PM    PM PM  
  S  S   E  S  S  S  S   E  S  S  E  S  S   
-------------------------------------------|
--------11--------------10--------8--------|
---------7---------------7--------7--------|
--0--0------0--0--0--0------0--0-----0--0--|
-------------------------------------------|
-------------------------------------------|


      PM PM PM PM     PM PM PM PM     PM PM                         
   E  S  S  S  S   E  S  S  S  S   E  S  S     Q    Q    Q    Q     
--------------------------------------------|----------------------|
--10--------------13--------------11--------|--3----6----5----8----|
---7---------------7---------------7--------|--3----3----5----5----|
------0--0--0--0------0--0--0--0------0--0--|----------------------|
--------------------------------------------|----------------------|
--------------------------------------------|----------------------|


     PM PM PM PM    PM PM                
  E  S  S  S  S  E  S  S  S  S  S S S S  
----------------------------------------|
----------------------------------------|
----------------------------------------|
--7--------------7--------7p-5p-3-------|
--5--5--5--5--5--5--5--5----------7-5-3-|
----------------------------------------|


     PM PM PM PM    PM PM                     PM PM PM PM                      
                                                                |--3--|        
  E  S  S  S  S  E  S  S  S  S  S S S S    E  S  S  S  S  E  E  S  S  S E  E   
----------------------------------------|-------------------------------------|
----------------------------------------|-------------------------------------|
--------------------------5p-3p-2-------|--5--------------5-------------------|
--3--------------3----------------5-3-2-|--3--3--3--3--3--3--3--2h-3p-2-------|
--1--1--1--1--1--1--1--1----------------|-------------------------------5--3--|
----------------------------------------|-------------------------------------|


  S  S  S  S S   S  S  S  S   S  S  S   Q     
----------------------12-15p-12--------------|
-------------------13-----------13-----------|
-------------9s-12-----------------12h-12----|
----------10---------------------------------|
-------10------------------------------------|
--8-12---------------------------------------|


     PM PM PM PM    PM PM                
  E  S  S  S  S  E  S  S  S  S  S S S S  
----------------------------------------|
----------------------------------------|
----------------------------------------|
--7--------------7--------7p-5p-3-------|
--5--5--5--5--5--5--5--5----------7-5-3-|
----------------------------------------|


     PM PM PM PM    PM PM                     PM PM PM PM                      
                                                                |--3--|        
  E  S  S  S  S  E  S  S  S  S  S S S S    E  S  S  S  S  E  E  S  S  S E  E   
----------------------------------------|-------------------------------------|
----------------------------------------|-------------------------------------|
--------------------------5p-3p-2-------|--5--------------5-------------------|
--3--------------3----------------5-3-2-|--3--3--3--3--3--3--3--2h-3p-2-------|
--1--1--1--1--1--1--1--1----------------|-------------------------------5--3--|
----------------------------------------|-------------------------------------|


  E  E  E  E  E  E  E  E     S S S S S S S S S S S S S S S S  
--------------------------|----------------------------------|
--------------------------|----------------------------------|
-----------------2--3--5--|----------5-5-3-3-2-2-------------|
--------2--3--5-----------|----------------------5-5-3-3-2-2-|
--3--5--------------------|--1-1-1-1-------------------------|
--------------------------|----------------------------------|


                                     PM PM PM PM    PM PM        PM PM      
  S S S S S S S S S S S S S S S S    S  S  S  S  E  S  S   E  E  S  S   E   
----------------------------------|----------------------------------------|
----------------------------------|----------------------------------------|
----------7-7-5-5-3-3-------------|--------------9--------10--9--------10--|
----------------------7-7-5-5-3-3-|--------------7---------7--7---------7--|
--3-3-3-3-------------------------|--5--5--5--5-----5--5---------5--5------|
----------------------------------|----------------------------------------|


     PM PM        PM PM                                              
  E  S  S   E  E  S  S   E  Q       S S S S S S S S S S S S S S S S  
---------------------------------|----------------------------------|
---------------------------------|----------------------------------|
--9--------10--9--------10--9----|----------5-5-3-3-2-2-------------|
--7---------7--7---------7--7----|----------------------5-5-3-3-2-2-|
-----5--5---------5--5-----------|--1-1-1-1-------------------------|
---------------------------------|----------------------------------|


  S S S S S S S S S S S S S S S S  
----------------------------------|
----------------------------------|
----------7-7-5-5-3-3-------------|
----------------------7-7-5-5-3-3-|
--3-3-3-3-------------------------|
----------------------------------|


     PM PM PM PM PM PM PM PM PM PM PM PM PM PM  
  E  S  S  S  S  S  S  S  S  S  S  S  S  S  S   
-----------------------------------------------|
-----------------------------------------------|
-----------------------------------------------|
--2--------------------------------------------|
--0--0--0--0--0--0--0--0--0--0--0--0--0--0--0--|
-----------------------------------------------|


                                        Keyboard Solo                
                   PM PM PM PM PM PM                                 
  E  S S S S E  E  S  S  S  S  S  S     Q             Q    H         
-------------------------------------|------------------------------|
-------------------------------------|------------------------------|
-------------------------------------|------------------------------|
--3----3-L---3--5--------------------|------------------------------|
--1----1-L---1--3--3--3--3--3--3--3--|--7---------------------------|
-------------------------------------|--5---------------------------|


  H        H           W                   W                 
--------------------|-------------------|-------------------|
--------------------|-------------------|-------------------|
--------------------|-------------------|-------------------|
--------------------|--7----------------|--7----------------|
--------------------|--5----------------|--3----------------|
--------------------|-------------------|-------------------|


  H        H           H        H           H.           Q     
--------------------|-----------3--------|--------------------|
--------------------|-----------3--------|--5-----------------|
--------------------|-----------3--------|--5-----------------|
--5-----------------|-----------5--------|--5-----------------|
--1--------0--------|--5--------5--------|--3------------0----|
--------------------|--3--------3--------|--------------------|


  W                   Q     E  E   E.  S E   E      W                 
-------------------|----------------------------|--------------------|
-------------------|--------------10------------|--10----------------|
-------------------|-----------9-------9-L------|---9----------------|
--5----------------|-------10---------------10--|--10----------------|
--1----------------|--8-------------------------|---8----------------|
-------------------|----------------------------|--------------------|


  W                   W                   W                   W                 
-------------------|-------------------|-------------------|-------------------|
--2----------------|-------------------|-------------------|-------------------|
--2----------------|-------------------|-------------------|-------------------|
--2----------------|-------------------|--7----------------|--7----------------|
--0----------------|--7----------------|--5----------------|--3----------------|
-------------------|--3----------------|-------------------|-------------------|


  Q    Q    Q    Q       Q    Q    H           W                 
----------------------|---------------------|--5----------------|
-----------------6----|---------------------|--5----------------|
------------7---------|--7------------------|--7----------------|
-------7--------------|-------7-------------|--7----------------|
----------------------|---------------------|--7----------------|
--7-------------------|------------7--------|--5----------------|


  W                   W                   W                 
--5----------------|-------------------|-------------------|
--5----------------|-------------------|-------------------|
--6----------------|-------------------|-------------------|
--7----------------|--7----------------|--7----------------|
--7----------------|--5----------------|--3----------------|
--5----------------|-------------------|-------------------|


  H        H           H        H           H.           Q     
--------------------|-----------3--------|--------------------|
--------------------|-----------3--------|--5-----------------|
--------------------|-----------3--------|--5-----------------|
--5-----------------|-----------5--------|--5-----------------|
--1--------0--------|--5--------5--------|--3------------0----|
--------------------|--3--------3--------|--------------------|


  W                   Q     E  E   E.  S E   E      W                 
-------------------|----------------------------|--------------------|
-------------------|--------------10------------|--10----------------|
-------------------|-----------9-------9-L------|---9----------------|
--5----------------|-------10---------------10--|--10----------------|
--1----------------|--8-------------------------|---8----------------|
-------------------|----------------------------|--------------------|


  W                   W                   W                   W                 
-------------------|-------------------|-------------------|-------------------|
--2----------------|-------------------|-------------------|-------------------|
--2----------------|-------------------|-------------------|-------------------|
--2----------------|-------------------|--7----------------|--7----------------|
--0----------------|--7----------------|--5----------------|--3----------------|
-------------------|--3----------------|-------------------|-------------------|


  Q    Q    Q    Q       Q    Q    H           W                 
----------------------|---------------------|--5----------------|
-----------------6----|---------------------|--5----------------|
------------7---------|--7------------------|--7----------------|
-------7--------------|-------7-------------|--7----------------|
----------------------|---------------------|--7----------------|
--7-------------------|------------7--------|--5----------------|


                      PM PM                 PM PM PM PM            
  W                   E  E  E   E   Q       E  E  E  E  S  S  S S  
--5----------------|---------------------|----------------------5-|
--5----------------|--------6---5---6----|--------------5h-6h-8---|
--6----------------|--------7s--6s--7----|------------------------|
--7----------------|--0--0---------------|--0--0--0--0------------|
--7----------------|---------------------|------------------------|
--5----------------|---------------------|------------------------|


  PM PM                 PM PM PM PM                      PM PM               
  E  E  E   E   Q       E  E  E  E  S  S  S S S S S S    E  E  E   E   Q     
---------------------|----------------------5-6-8-6-5-|---------------------|
--------6---5---6----|--------------5h-6h-8-----------|--------6---5---6----|
--------7s--6s--7----|--------------------------------|--------7s--6s--7----|
--0--0---------------|--0--0--0--0--------------------|--0--0---------------|
---------------------|--------------------------------|---------------------|
---------------------|--------------------------------|---------------------|


  PM PM PM PM                  PM PM               
  E  E  E  E   S   S   S  S    E  E  E   E   Q     
-------------------------10-|---------------------|
--------------10h-11h-13----|--------6---5---6----|
----------------------------|--------7s--6s--7----|
--0--0--0--0----------------|--0--0---------------|
----------------------------|---------------------|
----------------------------|---------------------|


  PM PM PM PM                              PM PM               
  E  E  E  E   S   S   S  S  S  S  S  S    E  E  E   E   Q     
-------------------------10-12-13-12-10-|---------------------|
--------------10h-11h-13----------------|--------6---5---6----|
----------------------------------------|--------7s--6s--7----|
--0--0--0--0----------------------------|--0--0---------------|
----------------------------------------|---------------------|
----------------------------------------|---------------------|


  PM PM PM PM                  PM PM               
  E  E  E  E   S   S   S  S    E  E  E   E   Q     
-------------------------13-|---------------------|
--------------13h-15h-17----|--------6---5---6----|
----------------------------|--------7s--6s--7----|
--0--0--0--0----------------|--0--0---------------|
----------------------------|---------------------|
----------------------------|---------------------|


  PM PM PM PM                              PM PM               
  E  E  E  E   S   S   S  S  S  S  S  S    E  E  E   E   Q     
-------------------------13-15-17-15-13-|---------------------|
--------------13h-15h-17----------------|--------6---5---6----|
----------------------------------------|--------7s--6s--7----|
--0--0--0--0----------------------------|--0--0---------------|
----------------------------------------|---------------------|
----------------------------------------|---------------------|


  PM PM PM PM                  PM PM               
  E  E  E  E   S   S   S  S    E  E  E   E   Q     
-------------------------17-|---------------------|
--------------17h-18h-20----|--------6---5---6----|
----------------------------|--------7s--6s--7----|
--0--0--0--0----------------|--0--0---------------|
----------------------------|---------------------|
----------------------------|---------------------|


  PM PM                                                                 
                                         |----3----|    |----3----|     
  E  E   S  S  S S  S  S S S  S S S S    Q    Q    Q    Q    Q    Q     
--------13-12-10-8-12-10-8-6-10-8-6-5-|--5------------------------6----|
--------------------------------------|-------6----5---------8---------|
--------------------------------------|-----------------7--------------|
--0--0--------------------------------|--------------------------------|
--------------------------------------|--------------------------------|
--------------------------------------|--------------------------------|


  |-----3----|     |-----3----|        |-----3-----|     |-----3-----|     
  Q     Q    Q     Q     Q    Q        Q     Q     Q     Q     Q     Q     
-------------9----12----10----9----|--13----10----------------10----13----|
-------10--------------------------|--------------10----11----------------|
--9--------------------------------|--------------------------------------|
-----------------------------------|--------------------------------------|
-----------------------------------|--------------------------------------|
-----------------------------------|--------------------------------------|


   |-----3-----|     |-----3-----|                                     
   Q     Q     Q     Q     Q     Q           Q      Q      H           
--------12----18----17----15----13----|-------------------------------|
--14----------------------------------|---xg15b-----Lb-----Lb~--------|
--------------------------------------|-------------------------------|
--------------------------------------|-------------------------------|
--------------------------------------|-------------------------------|
--------------------------------------|-------------------------------|


   H              Q.       E      W                     W                  
------------------------------|---------------------|---------------------|
--15b~---------xg15b-------L--|--15~----------------|---L~----------------|
------------------------------|---------------------|---------------------|
------------------------------|---------------------|---------------------|
------------------------------|---------------------|---------------------|
------------------------------|---------------------|---------------------|


                    |------3------|                                   
      Q      Q      Q      Q      Q         H.                 Q      
----------------------------------------|----------------------------|
---xg15b-----Lb----15b----15b----15b----|--15b~-------------xg15b----|
----------------------------------------|----------------------------|
----------------------------------------|----------------------------|
----------------------------------------|----------------------------|
----------------------------------------|----------------------------|


   E    E   H          Q        S  S  S  S  S  S  S  S  S  S  S  S  S  S  S  S  
----------------------10----|--13-13-13-13-------------13-13-13-13-15-15-15-15-|
---Lb---L--15~--------------|--------------15-15-15-15-------------------------|
----------------------------|--------------------------------------------------|
----------------------------|--------------------------------------------------|
----------------------------|--------------------------------------------------|
----------------------------|--------------------------------------------------|


   S  S  S  S  S  S  S  S  S  S  S S  S  S S S  
--17-15-13-12-15-13-12-10-13-12-10-8-12-10-8-6-|
-----------------------------------------------|
-----------------------------------------------|
-----------------------------------------------|
-----------------------------------------------|
-----------------------------------------------|


   S S S S S S S  S  S S S S S S S S    S  S  S  S S S S S S S S S S S S S  
--10-8-6-5-5-6-8p-6p-5---------------|-------------------------------------|
-----------------------8-6-5-6-5-6-5-|--6h-8p-6p-5---5---------------------|
-------------------------------------|-------------7---7-6-2-3-5-3-2-5-3-2-|
-------------------------------------|-------------------------------------|
-------------------------------------|-------------------------------------|
-------------------------------------|-------------------------------------|


  S S S S S S S S S S S S S S S S  
--------------------------------3-|
--------------------------3-5-6---|
--------------------2-3-5---------|
--5-3-2-------2-3-5---------------|
--------5-4-5---------------------|
----------------------------------|


  9 9 9  9  9 9 9 9 9  9   9 9 9  9 9   9   9 9  
  S S S  S  S S S S S  S   S S S  S S   S   S S  
--5-6---------5-6-8----------6-8-10-----------8-|
------5h-6h-8-------6h-8h-10--------8h-10h-11---|
------------------------------------------------|
------------------------------------------------|
------------------------------------------------|
------------------------------------------------|


   9  9  9   9   9  9  9  9  9  ---- |------5-----|  5   5   5  5  
   S  S  S   S   S  S  S  S  S   S   S   S  S  S  S  S   S   S  S  
--10-12------------10-12-13-12h-13p-12p-10----10---------------10-|
--------10h-11h-13-------------------------13----13-10h-12h-13----|
------------------------------------------------------------------|
------------------------------------------------------------------|
------------------------------------------------------------------|
------------------------------------------------------------------|


   S  S     E    H         Q        H          E.   S  E      E    
--12-13--xg13b---L---------L----|--13~--------12---13-13---xg13b--|
--------------------------------|---------------------------------|
--------------------------------|---------------------------------|
--------------------------------|---------------------------------|
--------------------------------|---------------------------------|
--------------------------------|---------------------------------|


   H          Q    Q       W                   W                 
--13~---------L---------|-------------------|-------------------|
------------------------|-------------------|-------------------|
------------------------|--7----------------|-------------------|
------------------------|--7----------------|--7----------------|
------------------------|--5----------------|--7----------------|
-------------------x----|-------------------|--5----------------|


  W                   W                   W                 
-------------------|-------------------|-------------------|
-------------------|-------------------|-------------------|
-------------------|-------------------|-------------------|
--7----------------|--5----------------|--7----------------|
--5----------------|--5----------------|--5----------------|
--5----------------|--3----------------|--5----------------|


                       PM PM PM PM PM PM PM PM PM         
  H        H           S  S  S  S  S  S  S  S  Q    Q     
--------------------|------------------------------------|
--------------------|------------------------------------|
--2-----------------|------------------------------------|
--2-----------------|--------------------------7---------|
--0--------L--------|--4--4--4--4--7--7--7--7------------|
--------------------|------------------------------------|


   S  S  S  S  S  S  S  S  S  S  S  S  S  S  S  S  
--17-17-------13-13-15-15-17-17-------13-13-17-17-|
--------15-15-------------------15-15-------------|
--------------------------------------------------|
--------------------------------------------------|
--------------------------------------------------|
--------------------------------------------------|


   S  S  S  S  S  S  S  S  S  S  S  S  S  S  S  S  
--18-18-------15-15-17-17-18-18-------15-15-17-17-|
--------15-15-------------------15-15-------------|
--------------------------------------------------|
--------------------------------------------------|
--------------------------------------------------|
--------------------------------------------------|


   S  S  S  S  S  S  S  S  S  S  S  S  S  S  S  S  
--18-18-------12-12-13-13-15-15-------12-12-15-15-|
--------13-13-------------------13-13-------------|
--------------------------------------------------|
--------------------------------------------------|
--------------------------------------------------|
--------------------------------------------------|


   S  S  S  S  S  S  S  S  S  S  S S  S  S S S  
--17-15-13-12-15-13-12-10-13-12-10-8-12-10-8-6-|
-----------------------------------------------|
-----------------------------------------------|
-----------------------------------------------|
-----------------------------------------------|
-----------------------------------------------|


  S S S S S S  S  S  S  S  S  S  S  S  S  S  
--6-6-----6-6-10-10-13-13-------10-10-13-13-|
------6-6-----------------11-11-------------|
--------------------------------------------|
--------------------------------------------|
--------------------------------------------|
--------------------------------------------|


   S  S  S  S  S  S  S  S  S  S  S  S  S  S  S  S  
--15-15-10-10-------------------10-10-15-15-10-10-|
--------------11-11-------11-11-------------------|
--------------------12-12-------------------------|
--------------------------------------------------|
--------------------------------------------------|
--------------------------------------------------|


   S   S  S  S  S  S  S   S  S  S  S  S  S   S  S   S   
--17p-12----------12-17p-12----------12-17p-12-17p-12h-|
---------15----15-----------15----15-------------------|
------------14-----------------14----------------------|
-------------------------------------------------------|
-------------------------------------------------------|
-------------------------------------------------------|


   T           T           T           T           T           T           
   |--6--|  |--6--|  |--6--|  |--6--|  |--6--|  |--6--|  |--6--|  |--6--|  
   S  S  S  S  S  S  S  S  S  S  S  S  S  S  S  S  S  S  S  S  S  S  S  S  
--21-17-15-12-21-17-15-12-21-17-15-12-21-17-15-12-21-17-15-12-21-17-15-12-|
--------------------------------------------------------------------------|
--------------------------------------------------------------------------|
--------------------------------------------------------------------------|
--------------------------------------------------------------------------|
--------------------------------------------------------------------------|


   S  S  S  S  S  S  S  S  S  S  S  S  S  S  S  S  
--17-17-------13-13-15-15-17-17-------13-13-17-17-|
--------15-15-------------------15-15-------------|
--------------------------------------------------|
--------------------------------------------------|
--------------------------------------------------|
--------------------------------------------------|


   S  S  S  S  S  S  S  S  S  S  S  S  S  S  S  S  
--18-18-------15-15-17-17-18-18-------15-15-17-17-|
--------15-15-------------------15-15-------------|
--------------------------------------------------|
--------------------------------------------------|
--------------------------------------------------|
--------------------------------------------------|


   S  S  S  S  S  S  S  S  S  S  S  S  S  S  S  S  
--18-18-------12-12-13-13-15-15-------12-12-15-15-|
--------13-13-------------------13-13-------------|
--------------------------------------------------|
--------------------------------------------------|
--------------------------------------------------|
--------------------------------------------------|


   S  S  S  S  S  S  S  S  S  S  S S  S  S S S  
--17-15-13-12-15-13-12-10-13-12-10-8-12-10-8-6-|
-----------------------------------------------|
-----------------------------------------------|
-----------------------------------------------|
-----------------------------------------------|
-----------------------------------------------|


  S S S S S S  S  S  S  S  S  S  S  S  S  S  
--6-6-----6-6-10-10-13-13-------10-10-13-13-|
------6-6-----------------11-11-------------|
--------------------------------------------|
--------------------------------------------|
--------------------------------------------|
--------------------------------------------|


   S  S  S  S  S  S  S  S  S  S  S  S  S  S  S  S   
--15-15-10-10-------------------10-10-15-15-10-10s-|
--------------11-11-------11-11--------------------|
--------------------12-12--------------------------|
---------------------------------------------------|
---------------------------------------------------|
---------------------------------------------------|


   E   S  S  S  S  S  S  S  S  S  S  S  S  S  S  
--17--17-17-17-17-17-17-18-18-18-18-18-18-18-18-|
------------------------------------------------|
------------------------------------------------|
------------------------------------------------|
------------------------------------------------|
------------------------------------------------|


   S  S  S  S  S  S  S  S  Q      Q      
--21-21-21-21-21-21-21-21-22b----22b----|
----------------------------------------|
----------------------------------------|
----------------------------------------|
----------------------------------------|
----------------------------------------|


     PM PM PM PM    PM PM                
  E  S  S  S  S  E  S  S  S  S  S S S S  
----------------------------------------|
----------------------------------------|
----------------------------------------|
--7--------------7--------7p-5p-3-------|
--5--5--5--5--5--5--5--5----------7-5-3-|
----------------------------------------|


     PM PM PM PM    PM PM                     PM PM PM PM                      
                                                                |--3--|        
  E  S  S  S  S  E  S  S  S  S  S S S S    E  S  S  S  S  E  E  S  S  S E  E   
----------------------------------------|-------------------------------------|
----------------------------------------|-------------------------------------|
--------------------------5p-3p-2-------|--5--------------5-------------------|
--3--------------3----------------5-3-2-|--3--3--3--3--3--3--3--2h-3p-2-------|
--1--1--1--1--1--1--1--1----------------|-------------------------------5--3--|
----------------------------------------|-------------------------------------|


  S  S  S  S S   S  S  S  S   S  S  S   Q     
----------------------12-15p-12--------------|
-------------------13-----------13-----------|
-------------9s-12-----------------12h-12----|
----------10---------------------------------|
-------10------------------------------------|
--8-12---------------------------------------|


     PM PM PM PM    PM PM                
  E  S  S  S  S  E  S  S  S  S  S S S S  
----------------------------------------|
----------------------------------------|
----------------------------------------|
--7--------------7--------7p-5p-3-------|
--5--5--5--5--5--5--5--5----------7-5-3-|
----------------------------------------|


     PM PM PM PM    PM PM                     PM PM PM PM                      
                                                                |--3--|        
  E  S  S  S  S  E  S  S  S  S  S S S S    E  S  S  S  S  E  E  S  S  S E  E   
----------------------------------------|-------------------------------------|
----------------------------------------|-------------------------------------|
--------------------------5p-3p-2-------|--5--------------5-------------------|
--3--------------3----------------5-3-2-|--3--3--3--3--3--3--3--2h-3p-2-------|
--1--1--1--1--1--1--1--1----------------|-------------------------------5--3--|
----------------------------------------|-------------------------------------|


  E  E  E  E  E  E  E  E     S S S S S S S S S S S S S S S S  
--------------------------|----------------------------------|
--------------------------|----------------------------------|
-----------------2--3--5--|----------5-5-3-3-2-2-------------|
--------2--3--5-----------|----------------------5-5-3-3-2-2-|
--3--5--------------------|--1-1-1-1-------------------------|
--------------------------|----------------------------------|


                                     PM PM PM PM    PM PM        PM PM      
  S S S S S S S S S S S S S S S S    S  S  S  S  E  S  S   E  E  S  S   E   
----------------------------------|----------------------------------------|
----------------------------------|----------------------------------------|
----------7-7-5-5-3-3-------------|--------------9--------10--9--------10--|
----------------------7-7-5-5-3-3-|--------------7---------7--7---------7--|
--3-3-3-3-------------------------|--5--5--5--5-----5--5---------5--5------|
----------------------------------|----------------------------------------|


     PM PM        PM PM                                              
  E  S  S   E  E  S  S   E  Q       S S S S S S S S S S S S S S S S  
---------------------------------|----------------------------------|
---------------------------------|----------------------------------|
--9--------10--9--------10--9----|----------5-5-3-3-2-2-------------|
--7---------7--7---------7--7----|----------------------5-5-3-3-2-2-|
-----5--5---------5--5-----------|--1-1-1-1-------------------------|
---------------------------------|----------------------------------|


  S S S S S S S S S S S S S S S S  
----------------------------------|
----------------------------------|
----------7-7-5-5-3-3-------------|
----------------------7-7-5-5-3-3-|
--3-3-3-3-------------------------|
----------------------------------|


     PM PM PM PM PM PM PM PM PM PM PM PM PM PM  
  E  S  S  S  S  S  S  S  S  S  S  S  S  S  S   
-----------------------------------------------|
-----------------------------------------------|
-----------------------------------------------|
--2--------------------------------------------|
--0--0--0--0--0--0--0--0--0--0--0--0--0--0--0--|
-----------------------------------------------|


                   PM PM PM PM PM PM  
  E  S S S S E  E  S  S  S  S  S  S   
-------------------------------------|
-------------------------------------|
-------------------------------------|
--3----3-L---3--5--------------------|
--1----1-L---1--3--3--3--3--3--3--3--|
-------------------------------------|


  S S S  S S S  S  S S  S  S  S  S  S  S  S  
--------------------------------------------|
--------------------------------------------|
-----------------------------------------10-|
--8-7-5-10-8-7-12-10-8-14-12-10-10-12-14----|
--------------------------------------------|
--------------------------------------------|


                                       |------5-----|  
   S  S  S  S  S  S  S  S  S  S  S  S  S  S  S  S   S  
--------------------------------------12-12-15-13p-12-|
------------------------------------------------------|
--------10-12----10-12-14-15-12-14-15-----------------|
--12-14-------14--------------------------------------|
------------------------------------------------------|
------------------------------------------------------|


   H          Q     Q       W                   H        H         
--13~---------L~---------|-------------------|--------------------|
-------------------------|-------------------|--------------------|
-------------------------|-------------------|--------------------|
-------------------------|--7----------------|--5-----------------|
-------------------------|--3----------------|--1--------0--------|
--------------------L----|-------------------|--------------------|


  H        H           H.           Q       W                 
-----------3--------|--------------------|-------------------|
-----------3--------|--5-----------------|-------------------|
-----------3--------|--5-----------------|-------------------|
-----------5--------|--5-----------------|--5----------------|
--5--------5--------|--3------------0----|--1----------------|
--3--------3--------|--------------------|-------------------|


  Q     E  E   E.  S E   E      W                   W                 
----------------------------|--------------------|-------------------|
--------------10------------|--10----------------|--2----------------|
-----------9-------9-L------|---9----------------|--2----------------|
-------10---------------10--|--10----------------|--2----------------|
--8-------------------------|---8----------------|--0----------------|
----------------------------|--------------------|-------------------|


  W                   W                   W                 
-------------------|-------------------|-------------------|
-------------------|-------------------|-------------------|
-------------------|-------------------|-------------------|
-------------------|--7----------------|--7----------------|
--7----------------|--5----------------|--3----------------|
--3----------------|-------------------|-------------------|


  Q    Q    Q    Q       Q    Q    H           W                 
----------------------|---------------------|--5----------------|
-----------------6----|---------------------|--5----------------|
------------7---------|--7------------------|--7----------------|
-------7--------------|-------7-------------|--7----------------|
----------------------|---------------------|--7----------------|
--7-------------------|------------7--------|--5----------------|


  H        H           H          H            Q     Q    Q     Q     
--5-----------------|-----------------------|------------------------|
--5-----------------|-----------8g8b--------|--8~----6----5~---------|
--6-----------------|-----------------------|-------------------7----|
--7-----------------|--7--------------------|------------------------|
--7-----------------|--5--------------------|------------------------|
--5--------x--------|-----------------------|------------------------|


  H         Q    Q       H         Q    Q       H             H          
----------------------|----------------------|--------------------------|
------------5----6----|------------5----6----|--5~---------xg11b--------|
--7~------------------|--7~------------------|--------------------------|
----------------------|----------------------|--------------------------|
----------------------|----------------------|--------------------------|
----------------------|----------------------|--------------------------|


   Q      Q    Q    Q       H         Q       Q       H         Q     Q     
-------------------------|-------------------------|-----------------------|
--11~----10----8----5----|--6~--------8----8g10----|--6~--------8----10----|
-------------------------|-------------------------|-----------------------|
-------------------------|-------------------------|-----------------------|
-------------------------|-------------------------|-----------------------|
-------------------------|-------------------------|-----------------------|


   H          Q    Q       Q     Q        Q    Q     
-------------------7----|--9----10----10g12----9----|
--10~--------10---------|---------------------------|
------------------------|---------------------------|
------------------------|---------------------------|
------------------------|---------------------------|
------------------------|---------------------------|


   Q.       E   Q      Q        Q.       E   Q      Q     
--10~------12---L~----13----|--10~------12---L~----13----|
----------------------------|----------------------------|
----------------------------|----------------------------|
----------------------------|----------------------------|
----------------------------|----------------------------|
----------------------------|----------------------------|


   Q.       E   Q      Q        Q.       E   Q         Q     
--10~------12---L~----13----|--13~------15---L~-----xg17----|
----------------------------|-------------------------------|
----------------------------|-------------------------------|
----------------------------|-------------------------------|
----------------------------|-------------------------------|
----------------------------|-------------------------------|


   H.             Q        Q.       E   Q      Q     
--15~------------13----|--12~------13---L~----15----|
-----------------------|----------------------------|
-----------------------|----------------------------|
-----------------------|----------------------------|
-----------------------|----------------------------|
-----------------------|----------------------------|


  S S S S  S  S  S  S  S  S  S  S  S  S  S  S  
----------------------------------------------|
----------------------------------------------|
----------------------------------------------|
--0-0-0-0-15-15-15-15-14-14-14-14-12-12-12-12-|
----------------------------------------------|
----------------------------------------------|


   S  S  S  S S S S S S S S S S S S S  
--------------------------------------|
--------------------------------------|
--------------------------------------|
--10-10-10-10-8-8-8-8-7-7-7-7-5-5-5-5-|
--------------------------------------|
--------------------------------------|


  S S S S  S  S  S  S  S  S  S  S  S  S  S  S  
----------------------------------------------|
----------------------------------------------|
----------------------------------------------|
--0-0-0-0-17-17-17-17-15-15-15-15-14-14-14-14-|
----------------------------------------------|
----------------------------------------------|


   S  S  S  S  S  S  S  S S S S S S S S S  
------------------------------------------|
------------------------------------------|
------------------------------------------|
--12-12-12-12-10-10-10-10-8-8-8-8-7-7-7-7-|
------------------------------------------|
------------------------------------------|


  S S S S  S  S  S  S  S  S  S  S  S  S  S  S  
----------------------------------------------|
----------------------------------------------|
----------------------------------------------|
--0-0-0-0-15-15-15-15-14-14-14-14-12-12-12-12-|
----------------------------------------------|
----------------------------------------------|


   S  S  S  S S S S S S S S S S S S S  
--------------------------------------|
--------------------------------------|
--------------------------------------|
--10-10-10-10-8-8-8-8-7-7-7-7-5-5-5-5-|
--------------------------------------|
--------------------------------------|


  S S S S  S  S  S  S  S  S  S  S  S  S  S  S  
----------------------------------------------|
----------------------------------------------|
----------------------------------------------|
--0-0-0-0-17-17-17-17-15-15-15-15-14-14-14-14-|
----------------------------------------------|
----------------------------------------------|


   S  S  S  S  S  S  S  S  S  S  S  S  S  S  S  S  
--------------------------------------------------|
--------------------------------------------------|
--------------------------------------------------|
--19-19-19-19-17-17-17-17-15-15-15-15-14-14-14-14-|
--------------------------------------------------|
--------------------------------------------------|


  S   S S S S   S  S  S  S   S  S  S  S S S  S  
---------------------13-10h-13-----------------|
------------------11-----------11--------------|
------------7s-10-----------------10s-7--------|
----------8-----------------------------8------|
--------8---------------------------------8----|
--6h-10-------------------------------------10-|


  S   S  S  S S   S  S  S  S   S  S  S  S  S  S  S  
-----------------------12-15p-12-------------------|
--------------------13-----------13----------------|
--------------9s-12-----------------12s-9----------|
-----------10-----------------------------10-------|
--------10-----------------------------------10----|
--8h-12-----------------------------------------12-|


  S   S S S S   S  S  S  S   S  S  S  S S S  S  
---------------------13-10h-13-----------------|
------------------11-----------11--------------|
------------7s-10-----------------10s-7--------|
----------8-----------------------------8------|
--------8---------------------------------8----|
--6h-10-------------------------------------10-|


  S   S  S  S S   S  S  S  S   S  S  S  S  S  S  S  
-----------------------12-15p-12-------------------|
--------------------13-----------13----------------|
--------------9s-12-----------------12s-9----------|
-----------10-----------------------------10-------|
--------10-----------------------------------10----|
--8h-12-----------------------------------------12-|


  |----3----|    |----3----|       |-----3----|     |-----3----|     
  Q    Q    Q    Q    Q    Q       Q     Q    Q     Q     Q    Q     
--5------------------------6----|-------------9----12----10----9----|
-------6----5---------8---------|-------10--------------------------|
-----------------7--------------|--9--------------------------------|
--------------------------------|-----------------------------------|
--------------------------------|-----------------------------------|
--------------------------------|-----------------------------------|


   |-----3-----|     |-----3-----|        |-----3-----|     |-----3-----|      
   Q     Q     Q     Q     Q     Q        Q     Q     Q     Q     Q     Q      
--13----10----------------10----13----|--------12----18----17----15----13~----|
--------------10----11----------------|--14-----------------------------------|
--------------------------------------|---------------------------------------|
--------------------------------------|---------------------------------------|
--------------------------------------|---------------------------------------|
--------------------------------------|---------------------------------------|


   Q    Q    H          
---L------------------||
----------------------||
----------------------||
----------------------||
----------------------||
----------------------||




Duration Legend
---------------
W - whole
H - half
Q - quarter
E - 8th
S - 16th
T - 32nd
X - 64th
. - note dotted
|-n-|  - n-tuplets


Tablature Legend
----------------
L - tied note
x - dead note
g - grace note
(n) - ghost note
> - accentuded note
NH - natural harmonic
AH - artificial harmonic
TH - tapped harmonic
SH - semi harmonic
PH - pitch harmonic
h - hammer on
p - pull off
b - bend
br - bendRelease
pb - preBend
pbr - preBendRelease
brb - bendReleaseBend
\n/ - tremolo bar dip
\n - tremolo bar dive
-/n - tremolo bar Release up
/n\ - tremolo bar inverted dip
/n - tremolo bar return
-\n - tremolo bar Release down
S - shift slide
s - legato slide
/ -  slide into from below or out of upwards
\ -  slide into from above or out of downwards
~ - vibrato
W - wide vibrato
tr - trill
TP - tremolo picking
T - tapping
S - slap
P - pop
< - fade in
^ - brush up
v - brush down

--------------------
     -Shinobi-
--------------------
Contact = shinobi@shinopix.com
comments
We did not receive enough feedback on this tab! Please rate:
print report bad tab
1 2 3 4 5
2 comments total.
0 reply
snowmanztah wrote on December 25 2007, 04:36 am

OMG PERFECT!~!! this song rocks.

0 reply
manju wrote on April 21 2010, 07:02 am

OMG YEAH!!!!!

I want to post or [tab]
guest
You may want to rate the tab now too:
select rating
Please do not post tabs as comments. Select "correction" instead!