Oops, an error
Loading. Please wait.

Abyss Of The Void Bass Tab

456 views 1 this week
no commentswrite comment
1 2 3 4 5
please rate
Autoscroll
+/-
esc
set tempo
stop
Contributor
WARNING: You are trying to view
                                    content from Ultimate-Guitar.com
                                    in an unauthorized application,
                                    which is prohibited.

                                    Please use an official Ultimate
                                    Guitar Tabs application for iPhone,
                                    iPad or Android to access legitimate
                                    chords, guitar, bass, and drum tabs
                                    from Ultimate-Guitar.com database.

                                    Type "ultimate guitar tabs" in Apple
                                    App Store's or Android Market's
                                    search to find the application.
 Abyss Of The Void                                 


                                                                       Gamma Ray
Bass
overkillz_msb@hotmail.com



     W                   H           W                   W                 
G||-------------------|-----------|-------------------|-------------------|
D||-------------------|-----------|-------------------|-------------------|
A||-------------------|-----------|-------------------|-------------------|
E||-------------------|-----------|-------------------|-------------------|


  W                   H           W                   W                 
-------------------|-----------|-------------------|-------------------|
-------------------|-----------|-------------------|-------------------|
-------------------|-----------|-------------------|-------------------|
-------------------|-----------|-------------------|-------------------|


  Q    H.              W                   W                   H         
--------------------|-------------------|-------------------|-----------|
--------------------|-------------------|-------------------|-----------|
--------------------|-------------------|-------------------|-----------|
--0-----------------|-------------------|-------------------|-----------|


  Q    H.              Q    H.              Q    H.            
--------------------|--------------------|--------------------|
--------------------|--------------------|--------------------|
--------------------|--------------------|--------------------|
--7-----------------|--7-----------------|--0-----------------|


  Q    H.              Q    H.              Q    H.            
--------------------|--------------------|--------------------|
--------------------|--------------------|--------------------|
--------------------|--------------------|--------------------|
--0-----------------|--0-----------------|--7-----------------|


  Q    H.              Q    H.              Q    H.            
--------------------|--------------------|--------------------|
--------------------|--------------------|--------------------|
--------------------|--------------------|--------------------|
--7-----------------|--0-----------------|--0-----------------|


                            |--3--|  |--3--|  |--3--|   
  Q    H.              Q    E  E  E  E  E  E  E  E  E   
--------------------|----------------------------------|
--------------------|----------------------------------|
--------------------|--3----3--3--3--3--3--3--3--3--3--|
--0-----------------|----------------------------------|


       |--3--|  |--3--|  |--3--|     |--3--|  |--3--|  |--3--|  |--3--|   
  Q    E  E  E  E  E  E  E  E  E     E  E  E  E  E  E  E  E  E  E  E  E   
----------------------------------|--------------------------------------|
----------------------------------|--------------------------------------|
--5----5--5--5--5--5--5--5--5--5--|--2--2--2--2--2--2--2--2--2--2--2--2--|
----------------------------------|--------------------------------------|


  |--3--|  |--3--|  |--3--|  |--3--|     |--3--|  |--3--|  |-3| |3|  |--3--|   
  E  E  E  E  E  E  E  E  E  E  E  E     E  E  E  E  E  E  E  S S E  E  E  E   
--------------------------------------|---------------------------------------|
--------------------------------------|---------------------------------------|
--2--2--2--2--2--2--2--------------7--|--5--------7---------------------------|
--------------------------------------|-----0--0-----0--0--0--0-0-0--0--0--0--|


  |--3--|  |--3--|  |-3| |3|  |--3--|     |--3--|  |--3--|  |--3--|  |--3--|   
  E  E  E  E  E  E  E  S S E  E  E  E     E  E  E  E  E  E  E  E  E  E  E  E   
---------------------------------------|--------------------------------------|
---------------------------------------|--------------------------------------|
--5--------7---------------------------|--5--------7--------9--------7--------|
-----0--0-----0--0--0--0-0-0--0--0--0--|-----0--0-----0--0-----0--0-----0--0--|


  |--3--|  |--3--|  |--3--|  |--3--|     |--3--|  |--3--|  |--3--|  |--3--|   
  E  E  E  E  E  E  E  E  E  E  E  E     E  E  E  E  E  E  E  E  E  E  E  E   
--------------------------------------|--------------------------------------|
--------------------------------------|--------------------------------------|
--5--------5--------5--------5--5--5--|--6--------6--------6--------6--6--6--|
-----7--7-----7--7-----7--7-----------|-----7--7-----7--7-----7--7-----------|


  |--3--|  |--3--|  |-3| |3|  |--3--|     |--3--|  |--3--|  |-3| |3|  |--3--|   
  E  E  E  E  E  E  E  S S E  E  E  E     E  E  E  E  E  E  E  S S E  E  E  E   
---------------------------------------|---------------------------------------|
---------------------------------------|---------------------------------------|
--5--------7---------------------------|--5--------7---------------------------|
-----0--0-----0--0--0--0-0-0--0--0--0--|-----0--0-----0--0--0--0-0-0--0--0--0--|


  |--3--|  |--3--|  |--3--|  |--3--|     |--3--|  |--3--|  |--3--|  |--3--|   
  E  E  E  E  E  E  E  E  E  E  E  E     E  E  E  E  E  E  E  E  E  E  E  E   
--------------------------------------|--------------------------------------|
--------------------------------------|--------------------------------------|
--5--------7--------9--------7--------|--5--------5--------5--------5--5--5--|
-----0--0-----0--0-----0--0-----0--0--|-----7--7-----7--7-----7--7-----------|


  |--3--|  |--3--|  |--3--|  |--3--|     |--3--|  |--3--|  |--3--|  |--3--|   
  E  E  E  E  E  E  E  E  E  E  E  E     E  E  E  E  E  E  E  E  E  E  E  E   
--------------------------------------|--------------------------------------|
--------------------------------------|--------------------------------------|
--6--------6--------6--------6--------|--7--7--7--7--7--7--5--5--5--5--5--5--|
-----7--7-----7--7-----7--7-----7--7--|--------------------------------------|


  |--3--|  |--3--|               |--3--|       |--3--|         
  E  E  E  E  E  E  Q    Q       E  E  E  Q    E  E  E   Q     
------------------------------|-----------9-------------12----|
------------------------------|-----------9-------------12----|
--3--3--3--3--3--3--3----5----|-----------7-------------10----|
------------------------------|--0--0--0-------0--0--0--------|


  |--3--|                    |--3--|  |--3--|  |--3--|  |--3--|   
  E  E  E  Q    Q    Q       E  E  E  E  E  E  E  E  E  E  E  E   
-----------9----5----4----|--------------------------------------|
-----------9----5----4----|--------------------------------------|
-----------7----3----2----|--7--7--7--7--7--7--5--5--5--5--5--5--|
--0--0--0-----------------|--------------------------------------|


  |--3--|  |--3--|               |--3--|       |--3--|           |--3--|        
  E  E  E  E  E  E  Q    Q       E  E  E  Q    E  E  E   Q       E  E  E  Q     
------------------------------|-----------9-------------12----|-----------9----|
------------------------------|-----------9-------------12----|-----------9----|
--3--3--3--3--3--3--3----5----|-----------7-------------10----|-----------7----|
------------------------------|--0--0--0-------0--0--0--------|--0--0--0-------|


  |-3|  |-3|  |--3--|  |--3--|  |--3--|                       
  E  S  S  E  E  E  E  E  E  E  E  E  E     W                 
-----------------------------------------|-------------------|
--9--9p-7p-5--7--5-----------------------|-------------------|
--------------------9--7--9--5--7--5--0--|--2----------------|
-----------------------------------------|-------------------|


           |--3--|  |--3--|     |--3--|  |--3--|  |--3--|  |--3--|   
  H        E  E  E  E  E  E     E  E  E  E  E  E  E  E  E  E  E  E   
-----------------------------|--------------------------------------|
-----------------------------|--------------------------------------|
--2--------2--2--2--2--------|--------------------------------------|
-----------------------------|--0--0--0--0--0--0--3--3--3--3--3--3--|


  |--3--|  |--3--|  |---3--|  |---3---|   
  E  E  E  E  E  E  E   E  E  E   E   E   
---------------------------7-------------|
--------------------7h--9-----9p--7------|
-------------------------------------10--|
--0--0--0--0--0--0-----------------------|


  |--3--|  |--3--|  |--3--|  |--3--|   
  E  E  E  E  E  E  E  E  E  E  E  E   
--------------------------------------|
--------------------------------------|
--3--3--3--3--3--3--5--5--5--5--5--5--|
--------------------------------------|


  |--3--|  |--3--|  |---3--|  |---3---|   
  E  E  E  E  E  E  E   E  E  E   E   E   
-----------------------------------------|
--------------------5p--4-----2h--4p--2--|
---------------------------5-------------|
--3--3--3--3--3--3-----------------------|


  |--3--|  |--3--|  |--3--|  |--3--|   
  E  E  E  E  E  E  E  E  E  E  E  E   
--------------------------------------|
--------------------------------------|
--------------------------------------|
--7--7--7--7--7--7--7--7--7--7--7--7--|


  |--3--|  |--3--|  |---3--|  |---3---|   
  E  E  E  E  E  E  E   E  E  E   E   E   
---------------------------7-------------|
--------------------7h--9-----9p--7------|
--7--7--7--7--7--7-------------------10--|
-----------------------------------------|


  |--3--|  |--3--|  |--3--|  |--3--|   
  E  E  E  E  E  E  E  E  E  E  E  E   
--------------------------------------|
--------------------------------------|
--5--5--5--5--5--5--5--5--5--5--5--5--|
--------------------------------------|


  |--3--|  |--3--|  |---3--|  |---3---|   
  E  E  E  E  E  E  E   E  E  E   E   E   
-----------------------------------------|
--------------------5p--4-----2h--4p--2--|
---------------------------5-------------|
--3--3--3--3--3--3-----------------------|


  |--3--|  |--3--|  |--3--|  |--3--|   
  E  E  E  E  E  E  E  E  E  E  E  E   
--------------------------------------|
--------------------9-----------------|
-----------------------------9--------|
--7--7--7--7--7--7-----7--7-----7--7--|


  |--3--|   |---3--|  |---3--|  |---3--|   
  E  E  E   E   E  E  E   E  E  E   E  E   
------------------------------------------|
------------------------------------------|
--7--7--7--10p--7--7--9p--7--7--5h--7--7--|
------------------------------------------|


  |--3--|  |--3--|  |--3--|  |--3--|          |--3--|  |--3--|  |--3--|   
  E  E  E  E  E  E  E  E  E  E  E  E     Q    E  E  E  E  E  E  E  E  E   
--------------------------------------|----------------------------------|
--------------------------------------|----------------------------------|
--3--3--3--3--3--3--5--5--5--5--5--5--|--7----7--7--7--7--------------7--|
--------------------------------------|----------------------------------|


  |--3--|  |--3--|  |-3| |3|  |--3--|     |--3--|  |--3--|  |-3| |3|  |--3--|   
  E  E  E  E  E  E  E  S S E  E  E  E     E  E  E  E  E  E  E  S S E  E  E  E   
---------------------------------------|---------------------------------------|
---------------------------------------|---------------------------------------|
--5--------7---------------------------|--5--------7---------------------------|
-----0--0-----0--0--0--0-0-0--0--0--0--|-----0--0-----0--0--0--0-0-0--0--0--0--|


  |--3--|  |--3--|  |--3--|  |--3--|     |--3--|  |--3--|  |--3--|  |--3--|   
  E  E  E  E  E  E  E  E  E  E  E  E     E  E  E  E  E  E  E  E  E  E  E  E   
--------------------------------------|--------------------------------------|
--------------------------------------|--------------------------------------|
--5--------7--------9--------7--------|--5--------5--------5--------5--5--5--|
-----0--0-----0--0-----0--0-----0--0--|-----7--7-----7--7-----7--7-----------|


  |--3--|  |--3--|  |--3--|  |--3--|     |--3--|  |--3--|  |-3| |3|  |--3--|   
  E  E  E  E  E  E  E  E  E  E  E  E     E  E  E  E  E  E  E  S S E  E  E  E   
--------------------------------------|---------------------------------------|
--------------------------------------|---------------------------------------|
--6--------6--------6--------6--6--6--|--5--------7---------------------------|
-----7--7-----7--7-----7--7-----------|-----0--0-----0--0--0--0-0-0--0--0--0--|


  |--3--|  |--3--|  |-3| |3|  |--3--|     |--3--|  |--3--|  |--3--|  |--3--|   
  E  E  E  E  E  E  E  S S E  E  E  E     E  E  E  E  E  E  E  E  E  E  E  E   
---------------------------------------|--------------------------------------|
---------------------------------------|--------------------------------------|
--5--------7---------------------------|--5--------7--------9--------7--------|
-----0--0-----0--0--0--0-0-0--0--0--0--|-----0--0-----0--0-----0--0-----0--0--|


  |--3--|  |--3--|  |--3--|  |--3--|     |--3--|  |--3--|  |--3--|  |--3--|   
  E  E  E  E  E  E  E  E  E  E  E  E     E  E  E  E  E  E  E  E  E  E  E  E   
--------------------------------------|--------------------------------------|
--------------------------------------|--------------------------------------|
--5--------5--------5--------5--5--5--|--6--------6--------6--------6--------|
-----7--7-----7--7-----7--7-----------|-----7--7-----7--7-----7--7-----7--7--|


  |--3--|  |--3--|  |--3--|  |--3--|     |--3--|  |--3--|             
  E  E  E  E  E  E  E  E  E  E  E  E     E  E  E  E  E  E  Q    Q     
--------------------------------------|------------------------------|
--------------------------------------|------------------------------|
--7--7--7--7--7--7--5--5--5--5--5--5--|--3--3--3--3--3--3--3----5----|
--------------------------------------|------------------------------|


  |--3--|       |--3--|           |--3--|                  
  E  E  E  Q    E  E  E   Q       E  E  E  Q    Q    Q     
-----------9-------------12----|-----------9----5----4----|
-----------9-------------12----|-----------9----5----4----|
-----------7-------------10----|-----------7----3----2----|
--0--0--0-------0--0--0--------|--0--0--0-----------------|


  |--3--|  |--3--|  |--3--|  |--3--|     |--3--|  |--3--|             
  E  E  E  E  E  E  E  E  E  E  E  E     E  E  E  E  E  E  Q    Q     
--------------------------------------|------------------------------|
--------------------------------------|------------------------------|
--7--7--7--7--7--7--5--5--5--5--5--5--|--3--3--3--3--3--3--3----5----|
--------------------------------------|------------------------------|


  |--3--|       |--3--|           |--3--|        
  E  E  E  Q    E  E  E   Q       E  E  E  Q     
-----------9-------------12----|-----------9----|
-----------9-------------12----|-----------9----|
-----------7-------------10----|-----------7----|
--0--0--0-------0--0--0--------|--0--0--0-------|


  |-3|  |-3|  |--3--|  |--3--|  |--3--|                       
  E  S  S  E  E  E  E  E  E  E  E  E  E     W                 
-----------------------------------------|-------------------|
--9--9p-7p-5--7--5-----------------------|-------------------|
--------------------9--7--9--5--7--5--0--|--2----------------|
-----------------------------------------|-------------------|


  |--3--|  |--3--|  |--3--|  |--3--|     |--3--|  |--3--|  |--3--|  |--3--|   
  E  E  E  E  E  E  E  E  E  E  E  E     E  E  E  E  E  E  E  E  E  E  E  E   
--------------------------------------|--------------------------------------|
--------------------------------------|--------------------------------------|
--2--2--2--2--2--2--2--2--2--2--------|--------------------------------------|
--------------------------------------|--0--0--0--0--0--0--3--3--3--3--3--3--|


  |--3--|  |--3--|  |---3--|  |---3---|   
  E  E  E  E  E  E  E   E  E  E   E   E   
---------------------------7-------------|
--------------------7h--9-----9p--7------|
-------------------------------------10--|
--0--0--0--0--0--0-----------------------|


  |--3--|  |--3--|  |--3--|  |--3--|   
  E  E  E  E  E  E  E  E  E  E  E  E   
--------------------------------------|
--------------------------------------|
--3--3--3--3--3--3--5--5--5--5--5--5--|
--------------------------------------|


  |--3--|  |--3--|  |---3--|  |---3---|   
  E  E  E  E  E  E  E   E  E  E   E   E   
-----------------------------------------|
--------------------5p--4-----2h--4p--2--|
---------------------------5-------------|
--3--3--3--3--3--3-----------------------|


  |--3--|  |--3--|  |--3--|  |--3--|   
  E  E  E  E  E  E  E  E  E  E  E  E   
--------------------------------------|
--------------------------------------|
--------------------------------------|
--7--7--7--7--7--7--7--7--7--7--7--7--|


  |--3--|  |--3--|  |---3--|  |---3---|   
  E  E  E  E  E  E  E   E  E  E   E   E   
---------------------------7-------------|
--------------------7h--9-----9p--7------|
--7--7--7--7--7--7-------------------10--|
-----------------------------------------|


  |--3--|  |--3--|  |--3--|  |--3--|   
  E  E  E  E  E  E  E  E  E  E  E  E   
--------------------------------------|
--------------------------------------|
--5--5--5--5--5--5--5--5--5--5--5--5--|
--------------------------------------|


  |--3--|  |--3--|  |---3--|  |---3---|   
  E  E  E  E  E  E  E   E  E  E   E   E   
-----------------------------------------|
--------------------5p--4-----2h--4p--2--|
---------------------------5-------------|
--3--3--3--3--3--3-----------------------|


  |--3--|  |--3--|  |--3--|  |--3--|   
  E  E  E  E  E  E  E  E  E  E  E  E   
--------------------------------------|
--------------------9-----------------|
-----------------------------9--------|
--7--7--7--7--7--7-----7--7-----7--7--|


  |--3--|   |---3--|  |---3--|  |---3--|   
  E  E  E   E   E  E  E   E  E  E   E  E   
------------------------------------------|
------------------------------------------|
--7--7--7--10p--7--7--9p--7--7--5h--7--7--|
------------------------------------------|


  |--3--|  |--3--|  |--3--|  |--3--|   
  E  E  E  E  E  E  E  E  E  E  E  E   
--------------------------------------|
--------------------------------------|
--3--3--3--3--3--3--5--5--5--5--5--5--|
--------------------------------------|


  |--3--|   |---3--|  |---3--|  |---3--|                        
  E  E  E   E   E  E  E   E  E  E   E  E     H        H         
------------------------------------------|--------------------|
------------------------------------------|--------------------|
--7--7--7--10p--7--7--9p--7--7--5h--7--7--|--3--------5--------|
------------------------------------------|--------------------|


  W                   W                   W                   W                 
-------------------|-------------------|-------------------|-------------------|
-------------------|-------------------|-------------------|-------------------|
--7----------------|-------------------|-------------------|-------------------|
-------------------|--0----------------|--L----------------|--7----------------|


  W                   W                   W                   W                 
-------------------|-------------------|-------------------|-------------------|
-------------------|-------------------|-------------------|-------------------|
-------------------|-------------------|-------------------|-------------------|
--L----------------|--0----------------|--L----------------|--7----------------|


  W                   W                   W                   W                 
-------------------|-------------------|-------------------|-------------------|
-------------------|-------------------|-------------------|-------------------|
-------------------|-------------------|-------------------|-------------------|
--L----------------|--0----------------|--L----------------|--7----------------|


  W                   W                   W                   W                 
-------------------|-------------------|-------------------|-------------------|
-------------------|-------------------|-------------------|-------------------|
-------------------|-------------------|-------------------|-------------------|
--L----------------|--0----------------|--L----------------|--7----------------|


  H.           E  E     Q    Q    Q    Q       Q    Q    Q    Q     
---------------------|----------------------|----------------------|
---------------------|----------------------|----------------------|
---------------------|----------------------|----------------------|
--7------------L--7--|--0----0----0----0----|--0----0----0----0----|


  Q    Q    Q    Q       Q    Q    Q    Q       Q    Q    Q    Q     
----------------------|----------------------|----------------------|
----------------------|----------------------|----------------------|
----------------------|----------------------|----------------------|
--7----7----7----7----|--7----7----7----7----|--0----0----0----0----|


  Q    Q    Q    Q       Q    Q    Q    Q       Q    Q    Q    Q     
----------------------|----------------------|----------------------|
----------------------|----------------------|----------------------|
----------------------|----------------------|----------------------|
--0----0----0----0----|--7----7----7----7----|--7----7----7----7----|


  Q    Q    Q    Q       Q    Q    Q    Q       Q    Q    Q    Q     
----------------------|----------------------|----------------------|
----------------------|----------------------|----------------------|
----------------------|----------------------|----------------------|
--0----0----0----0----|--0----0----0----0----|--7----7----7----7----|


            |---3--|                                                       
  Q    Q    E   E  E  Q        Q    Q    Q    Q       Q    Q    Q    Q     
----------------------------|----------------------|----------------------|
------------7h--9-----------|----------------------|----------------------|
-------------------9--------|----------------------|----------------------|
--7----7--------------7\----|--0----0----0----0----|--0----0----0----0----|


                                                |--3--|  |--3--|            
  Q    Q    Q    Q       Q    Q    Q    Q       E  E  E  E  E  E  H         
----------------------|----------------------|-----------------------------|
----------------------|----------------------|-----------------------------|
----------------------|----------------------|--7--7--7--7-----------------|
--7----7----7----7----|--7----7----7----7----|-----------------------------|


  |--3--|  |--3--|              |--3--|  |--3--|                                
  E  E  E  E  E  E  H           E  E  E  E  E  E  H           W                 
-----------------------------|-----------------------------|-------------------|
-----------------------------|-----------------------------|-------------------|
--7--7--7--7-----------------|--5--5--5--5--5--5-----------|--2----------------|
-----------------------------|-----------------------------|-------------------|


                      |--3--|  |--3--|  |--3--|  |--3--|   
  W                   E  E  E  E  E  E  E  E  E  E  E  E   
-------------------|--------------------------------------|
-------------------|--------------------------------------|
--L----------------|--------------------------------------|
-------------------|--0--0--0--0--0--0--3--3--3--3--3--3--|


  |--3--|  |--3--|  |---3--|  |---3---|   
  E  E  E  E  E  E  E   E  E  E   E   E   
---------------------------7-------------|
--------------------7h--9-----9p--7------|
-------------------------------------10--|
--0--0--0--0--0--0-----------------------|


  |--3--|  |--3--|  |--3--|  |--3--|   
  E  E  E  E  E  E  E  E  E  E  E  E   
--------------------------------------|
--------------------------------------|
--3--3--3--3--3--3--5--5--5--5--5--5--|
--------------------------------------|


  |--3--|  |--3--|  |---3--|  |---3---|   
  E  E  E  E  E  E  E   E  E  E   E   E   
-----------------------------------------|
--------------------5p--4-----2h--4p--2--|
---------------------------5-------------|
--3--3--3--3--3--3-----------------------|


  |--3--|  |--3--|  |--3--|  |--3--|   
  E  E  E  E  E  E  E  E  E  E  E  E   
--------------------------------------|
--------------------------------------|
--------------------------------------|
--7--7--7--7--7--7--7--7--7--7--7--7--|


  |--3--|  |--3--|  |---3--|  |---3---|   
  E  E  E  E  E  E  E   E  E  E   E   E   
---------------------------7-------------|
--------------------7h--9-----9p--7------|
--7--7--7--7--7--7-------------------10--|
-----------------------------------------|


  |--3--|  |--3--|  |--3--|  |--3--|   
  E  E  E  E  E  E  E  E  E  E  E  E   
--------------------------------------|
--------------------------------------|
--5--5--5--5--5--5--5--5--5--5--5--5--|
--------------------------------------|


  |--3--|  |--3--|  |---3--|  |---3---|   
  E  E  E  E  E  E  E   E  E  E   E   E   
-----------------------------------------|
--------------------5p--4-----2h--4p--2--|
---------------------------5-------------|
--3--3--3--3--3--3-----------------------|


  |--3--|  |--3--|  |--3--|  |--3--|   
  E  E  E  E  E  E  E  E  E  E  E  E   
--------------------------------------|
--------------------9-----------------|
-----------------------------9--------|
--7--7--7--7--7--7-----7--7-----7--7--|


  |--3--|   |---3--|  |---3--|  |---3--|   
  E  E  E   E   E  E  E   E  E  E   E  E   
------------------------------------------|
------------------------------------------|
--7--7--7--10p--7--7--9p--7--7--5h--7--7--|
------------------------------------------|


  |--3--|  |--3--|  |--3--|  |--3--|     |--3--|  |--3--|  |--3--|  |--3--|   
  E  E  E  E  E  E  E  E  E  E  E  E     E  E  E  E  E  E  E  E  E  E  E  E   
--------------------------------------|--------------------------------------|
--------------------------------------|--------------------------------------|
--3--3--3--3--3--3--5--5--5--5--5--5--|--7--7--7--7--7--7--7--7--7--7--7--7--|
--------------------------------------|--------------------------------------|


  |--3--|  |--3--|   |--3--|  |--3--|   
  E  E  E  E  E  E   E  E  E  E  E  E   
---------------------------------------|
---------------------------------------|
--7-----------------10-----------------|
-----0--0--0--0--0------0--0--0--0--0--|


  |--3--|  |--3--|   |--3--|  |---3---|   
  E  E  E  E  E  E   E  E  E  E   E   E   
-----------------------------------------|
-----------------------------------------|
--7--------7--------10-----9-----12--10--|
-----0--0-----0--0------0-----0----------|


  |--3--|  |--3--|  |--3--|  |--3--|     |---3--|  |--3--|  |--3--|  |--3--|   
  E  E  E  E  E  E  E  E  E  E  E  E     E   E  E  E  E  E  E  E  E  E  E  E   
--------------------------------------|---------------------------------------|
--------------------------------------|---------------------------------------|
--------------------------------------|---------------------------------------|
--7--7--7--7--7--7--7--7--7--7--7--7--|--6/--7--7--7--7--7--7--7--7--7--7--7--|


  |--3--|  |--3--|  |--3--|  |--3--|   
  E  E  E  E  E  E  E  E  E  E  E  E   
--------------------------------------|
--------------------------------------|
--7--------7--------6--------6--------|
-----0--0-----0--0-----0--0-----0--0--|


  |--3--|  |--3--|   |--3--|  |---3---|   
  E  E  E  E  E  E   E  E  E  E   E   E   
-----------------------------------------|
-----------------------------------------|
--7--------7--------10-----9-----12--10--|
-----0--0-----0--0------0-----0----------|


  |--3--|  |--3--|  |--3--|  |--3--|     |---3--|  |--3--|  |--3--|  |--3--|   
  E  E  E  E  E  E  E  E  E  E  E  E     E   E  E  E  E  E  E  E  E  E  E  E   
--------------------------------------|---------------------------------------|
--------------------------------------|---------------------------------------|
--------------------------------------|---------------------------------------|
--7--7--7--7--7--7--7--7--7--7--7--7--|--6/--7--7--7--7--7--7--7--7--7--7--7--|


  |--3--|  |--3--|  |--3--|  |--3--|   
  E  E  E  E  E  E  E  E  E  E  E  E   
--------------------------------------|
--------------------------------------|
--7--------7--------6--------6--------|
-----0--0-----0--0-----0--0-----0--0--|


  |--3--|  |--3--|   |--3--|  |---3---|   
  E  E  E  E  E  E   E  E  E  E   E   E   
-----------------------------------------|
-----------------------------------------|
--7--------7--------10-----9-----12--10--|
-----0--0-----0--0------0-----0----------|


  |--3--|  |--3--|  |--3--|  |--3--|     |---3--|  |--3--|  |--3--|  |--3--|   
  E  E  E  E  E  E  E  E  E  E  E  E     E   E  E  E  E  E  E  E  E  E  E  E   
--------------------------------------|---------------------------------------|
--------------------------------------|---------------------------------------|
--------------------------------------|---------------------------------------|
--7--7--7--7--7--7--7--7--7--7--7--7--|--6/--7--7--7--7--7--7--7--7--7--7--7--|


  |--3--|  |--3--|  |--3--|  |--3--|   
  E  E  E  E  E  E  E  E  E  E  E  E   
--------------------------------------|
--------------------------------------|
--7--------7--------6--------6--------|
-----0--0-----0--0-----0--0-----0--0--|


  |--3--|  |--3--|   |--3--|  |---3---|   
  E  E  E  E  E  E   E  E  E  E   E   E   
-----------------------------------------|
-----------------------------------------|
--7--------7--------10-----9-----12--10--|
-----0--0-----0--0------0-----0----------|


  |--3--|  |--3--|  |--3--|  |--3--|     |--3--|  |--3--|  |--3--|  |--3--|   
  E  E  E  E  E  E  E  E  E  E  E  E     E  E  E  E  E  E  E  E  E  E  E  E   
--------------------------------------|--------------------------------------|
--------------------------------------|--------------------------------------|
--------------------------------------|--------------------------------------|
--7--7--7--7--7--7--7--7--7--7--7--7--|--7--7--7--7--7--7--7--7--7--7--7--7--|


  |--3--|  |--3--|  |--3--|  |--3--|     |--3--|  |--3--|             
  E  E  E  E  E  E  E  E  E  E  E  E     E  E  E  E  E  E  Q    Q     
--------------------------------------|------------------------------|
--------------------------------------|------------------------------|
--7--7--7--7--7--7--5--5--5--5--5--5--|--3--3--3--3--3--3--3----5----|
--------------------------------------|------------------------------|


  |--3--|       |--3--|           |--3--|                  
  E  E  E  Q    E  E  E   Q       E  E  E  Q    Q    Q     
-----------9-------------12----|-----------9----5----4----|
-----------9-------------12----|-----------9----5----4----|
-----------7-------------10----|-----------7----3----2----|
--0--0--0-------0--0--0--------|--0--0--0-----------------|


  |--3--|  |--3--|  |--3--|  |--3--|     |--3--|  |--3--|             
  E  E  E  E  E  E  E  E  E  E  E  E     E  E  E  E  E  E  Q    Q     
--------------------------------------|------------------------------|
--------------------------------------|------------------------------|
--7--7--7--7--7--7--5--5--5--5--5--5--|--3--3--3--3--3--3--3----5----|
--------------------------------------|------------------------------|


  |--3--|       |--3--|           |--3--|        
  E  E  E  Q    E  E  E   Q       E  E  E  Q     
-----------9-------------12----|-----------9----|
-----------9-------------12----|-----------9----|
-----------7-------------10----|-----------7----|
--0--0--0-------0--0--0--------|--0--0--0-------|


  |-3|  |-3|  |--3--|  |--3--|  |--3--|                       
  E  S  S  E  E  E  E  E  E  E  E  E  E     W                 
-----------------------------------------|-------------------|
--9--9p-7p-5--7--5-----------------------|-------------------|
--------------------9--7--9--5--7--5--0--|--2----------------|
-----------------------------------------|-------------------|


  |--3--|  |--3--|  |--3--|  |--3--|     |--3--|  |--3--|  |--3--|  |--3--|   
  E  E  E  E  E  E  E  E  E  E  E  E     E  E  E  E  E  E  E  E  E  E  E  E   
--------------------------------------|--------------------------------------|
--------------------------------------|--------------------------------------|
--2--2--2--2--2--2--2--2--2--2--------|--------------------------------------|
--------------------------------------|--0--0--0--0--0--0--3--3--3--3--3--3--|


  |--3--|  |--3--|  |---3--|  |---3---|   
  E  E  E  E  E  E  E   E  E  E   E   E   
---------------------------7-------------|
--------------------7h--9-----9p--7------|
-------------------------------------10--|
--0--0--0--0--0--0-----------------------|


  |--3--|  |--3--|  |--3--|  |--3--|   
  E  E  E  E  E  E  E  E  E  E  E  E   
--------------------------------------|
--------------------------------------|
--3--3--3--3--3--3--5--5--5--5--5--5--|
--------------------------------------|


  |--3--|  |--3--|  |---3--|  |---3---|   
  E  E  E  E  E  E  E   E  E  E   E   E   
-----------------------------------------|
--------------------5p--4-----2h--4p--2--|
---------------------------5-------------|
--3--3--3--3--3--3-----------------------|


  |--3--|  |--3--|  |--3--|  |--3--|   
  E  E  E  E  E  E  E  E  E  E  E  E   
--------------------------------------|
--------------------------------------|
--------------------------------------|
--7--7--7--7--7--7--7--7--7--7--7--7--|


  |--3--|  |--3--|  |---3--|  |---3---|   
  E  E  E  E  E  E  E   E  E  E   E   E   
---------------------------7-------------|
--------------------7h--9-----9p--7------|
--7--7--7--7--7--7-------------------10--|
-----------------------------------------|


  |--3--|  |--3--|  |--3--|  |--3--|   
  E  E  E  E  E  E  E  E  E  E  E  E   
--------------------------------------|
--------------------------------------|
--5--5--5--5--5--5--5--5--5--5--5--5--|
--------------------------------------|


  |--3--|  |--3--|  |---3--|  |---3---|   
  E  E  E  E  E  E  E   E  E  E   E   E   
-----------------------------------------|
--------------------5p--4-----2h--4p--2--|
---------------------------5-------------|
--3--3--3--3--3--3-----------------------|


  |--3--|  |--3--|  |--3--|  |--3--|   
  E  E  E  E  E  E  E  E  E  E  E  E   
--------------------------------------|
--------------------9-----------------|
-----------------------------9--------|
--7--7--7--7--7--7-----7--7-----7--7--|


  |--3--|   |---3--|  |---3--|  |---3--|   
  E  E  E   E   E  E  E   E  E  E   E  E   
------------------------------------------|
------------------------------------------|
--7--7--7--10p--7--7--9p--7--7--5h--7--7--|
------------------------------------------|


  |--3--|  |--3--|  |--3--|  |--3--|   
  E  E  E  E  E  E  E  E  E  E  E  E   
--------------------------------------|
--------------------------------------|
--3--3--3--3--3--3--5--5--5--5--5--5--|
--------------------------------------|


  |--3--|   |---3--|  |---3--|  |---3--|   
  E  E  E   E   E  E  E   E  E  E   E  E   
------------------------------------------|
------------------------------------------|
--7--7--7--10p--7--7--9p--7--7--5h--7--7--|
------------------------------------------|


  |--3--|  |--3--|  |--3--|  |--3--|     |--3--|  |--3--|  |--3--|  |--3--|   
  E  E  E  E  E  E  E  E  E  E  E  E     E  E  E  E  E  E  E  E  E  E  E  E   
--------------------------------------|--------------------------------------|
--------------------------------------|--------------------------------------|
--3--3--3--3--3--3--5--5--5--5--5--5--|--7--7--7--7--7--7--7--7--7--7--7--7--|
--------------------------------------|--------------------------------------|


  H        H           W                   W                 
--------------------|--4----------------|--L----------------|
--------------------|--4----------------|--L----------------|
--3--------5--------|--2----------------|--L----------------|
--------------------|-------------------|-------------------|


  |-3|  |-3|  |--3--|  |--3--|  |--3--|     |--3--|                 
  E  S  S  E  E  E  E  E  E  E  E  E  E     E  E  E  H.             
-----------------------------------------|------------------------||
--9--9p-7p-5--7--5-----------------------|------------------------||
--------------------9--7--9--5--7--5--0--|--2---------------------||
-----------------------------------------|------------------------||




Duration Legend
---------------
W - whole
H - half
Q - quarter
E - 8th
S - 16th
T - 32nd
X - 64th
. - note dotted
|-n-|  - n-tuplets


Tablature Legend
----------------
L - tied note
x - dead note
g - grace note
(n) - ghost note
> - accentuded note
NH - natural harmonic
AH - artificial harmonic
TH - tapped harmonic
SH - semi harmonic
PH - pitch harmonic
h - hammer on
p - pull off
b - bend
br - bendRelease
pb - preBend
pbr - preBendRelease
brb - bendReleaseBend
\n/ - tremolo bar dip
\n - tremolo bar dive
-/n - tremolo bar Release up
/n\ - tremolo bar inverted dip
/n - tremolo bar return
-\n - tremolo bar Release down
S - shift slide
s - legato slide
/ -  slide into from below or out of upwards
\ -  slide into from above or out of downwards
~ - vibrato
W - wide vibrato
tr - trill
TP - tremolo picking
T - tapping
S - slap
P - pop
< - fade in
^ - brush up
v - brush down
comments
We did not receive enough feedback on this tab! Please rate:
1 2 3 4 5
I want to post or [tab]
guest
You may want to rate the tab now too:
select rating
Please do not post tabs as comments. Select "correction" instead!