Oops, an error
Loading. Please wait.

Abyss Of The Void Tab

886 views 1 this week
no commentswrite comment
1 2 3 4 5
please rate
Autoscroll
+/-
esc
set tempo
stop
Contributor
WARNING: You are trying to view
                                    content from Ultimate-Guitar.com
                                    in an unauthorized application,
                                    which is prohibited.

                                    Please use an official Ultimate
                                    Guitar Tabs application for iPhone,
                                    iPad or Android to access legitimate
                                    chords, guitar, bass, and drum tabs
                                    from Ultimate-Guitar.com database.

                                    Type "ultimate guitar tabs" in Apple
                                    App Store's or Android Market's
                                    search to find the application.
Band : Gamma Ray
Album: LAND OF THE FREE
Song : ABYSS OF THE VOID
[Words&Music by Kai Hansen]

Transcripted by ? 


Notations: 
[..] : palm muting
h : hammer on
p : pulling off
b : bend
rb : release bend
/ or \ : slide
~ : trill
[Harm] : natural harmonic
Tr. : Hammer on pull off the two notes below as fast as possible
% : repeat the same bar



|--------||-----------------------------|---|------------------------------||
|--------||-----------------------------|---|------------------------------||
|--------||-----------------------------|---|------------------------------||
|--5-----||--4------5------5------5-----|-%-|--5------9-------7------5-----||
|----7---||----5------7------7------7---|---|----7------10------9------7---||
|------0-||------0------0------0------0-|---|------0-------0------0------0-||
|
| with Wah [-->
|--------||-----------------------------|---|------------------------------||
|--------||-----------------------------|---|------------------------------||
|--------||-----------------------------|---|------------------------------||
|--------||-----------------------------|---|--5---------------------------||
|--------||-----------------------------|---|------------------------------||
|--------||-----------------------------|---|------------------------------||



||--------------||----------------------------|----------------------------||
||--------------||----------------------------|----------------------------||
||--------------||----------------------------|----------------------------||
||-7------5-----||-4------4------4------4-----|-4------4------4------5-----||
||---9------7---||---5------5------5------5---|---5------5------5------7---||
||-----0------0-||-----7------7------7------7-|-----7------7------7------0-||
||
||
||--------------||----------------------------|----------------------------||
||--------------||----------------------------|----------------------------||
||--------------||----------------------------|-4--------------------------||
||--------------||----------------------------|----------------------------||
||--------------||----------------------------|----------------------------||
||--------------||----------------------------|----------------------------||


Now_____I must go, I'll wait for you to

||-----------------------------|------------|------------------------------||
||-----------------------------|------------|------------------------------||
||-----------------------------|------------|------------------------------||
||--4------5------5------5-----|------%-----|--5------9-------7------5-----||
||----5------7------7------7---|------------|----7------10------9------7---||
||------0------0------0------0-|------------|------0-------0------0------0-||
||
|| (with Wah)-->]
||-----------------------------|------------|------------------------------||
||-----------------------------|------------|------------------------------||
||-----------------------------|------------|------------------------------||
||-----------------------------|-5----------|------------------------------||
||-----------------------------|------------|------------------------------||
||-----------------------------|------------|------------------------------||


fol-low No turn - ing back But 

||--------------||----------------------------|-----------------------------|
||--------------||----------------------------|-----------------------------|
||--------------||----------------------------|-----------------------------|
||-7------5-----||-4------4------4------4-----|-4------4------4------5------|
||---9------7---||---5------5------5------5---|---6------6------6------7----|
||-----0------0-||-----7------7------7------7-|-----7------7------7------0--|
||
||
||--------------||----------------------------|-----------------------------|
||--------------||----------------------------|-----------------------------|
||--------------||----------------------------|-----------------------------|
||--------------||----------------------------|-----------------------------|
||--------------||----------------------------|-----------------------------|
||--------------||----------------------------|-----------------------------|


there's a light, I've seen it all,__ rid-ing through,____

|----------------------------|----------------|-----------------------------|
|----------------------------|----------------|-----------------------------|
|----------------------------|----------------|-----------------------------|
|-4------5------5------5-----|--------%-------|-5------9-------7------5-----|
|---5------7------7------7---|----------------|---7------10------9------7---|
|-----0------0------0------0-|----------------|-----0-------0------0------0-|
|
|
|----------------------------|----------------|-----------------------------|
|----------------------------|----------------|-----------------------------|
|----------------------------|----------------|-----------------------------|
|----------------------------|----------------|-----------------------------|
|----------------------------|----------------|-----------------------------|
|----------------------------|----------------|-----------------------------|


nev-er fall____________________________________ When

|----------------------------|----------------------------|
|----------------------------|----------------------------|
|----------------------------|----------------------------|
|-4------4------4------4-----|-4------4------4------5-----|
|---5------5------5------5---|---6------6------6------7---|
|-----7------7------7------7-|-----7------7------7------0-|
|
|
|----------------------------|----------------------------|
|----------------------------|-------------------------8--|
|----------------------------|----------------------------|
|----------------------------|----------------------------|
|----------------------------|----------------------------|
|----------------------------|----------------------------|


all is done,______ we must be one I will re - 

|----------------------------|----------------|-----------------------------|
|----------------------------|----------------|-----------------------------|
|----------------------------|----------------|-----------------------------|
|-4------5------5------5-----|--------%-------|-5------9-------7------5-----|
|---5------7------7------7---|----------------|---7------10------9------7---|
|-----0------0------0------0-|----------------|-----0-------0------0------0-|
|
|
|----------------------------|----------------|-----------------------------|
|--7-----8----------------8--|-7---8--------8-|--7-----8------10------8-----|
|---------------9------------|---------9------|-----------------------------|
|----------------------------|----------------|-----------------------------|
|----------------------------|----------------|-----------------------------|
|----------------------------|----------------|-----------------------------|


turn___________________________________________________

|----------------------------|---------------------------|
|----------------------------|---------------------------|
|----------------------------|---------------------------|
|-5--------------------------|-7-------------------------|
|-3--------------------------|-5-------------------------|
|----------------------------|---------------------------|
|
|
|----------------------------|------------7--------------|
|----------------------------|-----7-8-10--------------7-|
|--------------------7-9-7-9-|-7-9-----------------7-9---|
|-------------7-9-10---------|--------------7-9-10-------|
|------7-9-10----------------|---------------------------|
|-8-10-----------------------|---------------------------|


___________________________ yeah________________ The

|-------------------------|--------------------------|
|-------------------------|--------------------------|
|-------------------------|--------------------------|
|-4-4-4-4-4-4-4-4-4-4-4-4-|-4-4-4-4-4-4-4---------5--|
|-2-2-2-2-2-2-2-2-2-2-2-2-|-2-2-2-2-2-2-2---------7--|
|-------------------------|--------------------------|
|
| Tr. Tr. Tr. Tr.
|-7-8---------11-12-------|-11-12--14-15---19--------|
|-------------------------|--------------------------|
|-------------------------|--------------------------|
|-------------------------|--------------------------|
|-------------------------|--------------------------|
|-------------------------|--------------------------|



$1 mark

sav - iour is call-ing he's rid - ing through the
ar - mour still shin-ing though it's torn___ by
|-----------------------------|-------------------|-------------------------|
|-----------------------------|-------------------|-------------------------|
|-----------------------------|-------------------|-------------------------|
|-4------5--------------------|---------%---------|-4-----5-----7-----5-----|
|-5------7--------------------|-------------------|-5-----7-----9-----7-----|
|---0-0----0-0--0-00-0--0-0-0-|-------------------|---0-0---0-0---0-0---0-0-|
| [.] [................] [.] [.] [.] [.]
|
|-----------------------------|-------------------|-------------------------|
|-----------------------------|-------------------|-------------------------|
|-----------------------------|-------------------|-------------------------|
|-----------------------------|-------------------|-------------------------|
|-----------------------------|-------------------|-------------------------|
|-----------------------------|-------------------|-------------------------|


night The
fights The
|------------------------------------|------------------------------------|
|------------------------------------|------------------------------------|
|------------------------------------|------------------------------------|
|-4--------4--------4--------4--4--4-|-4--------4--------4--------4--4--4-|
|-5--------5--------5--------5--5--5-|-6--------6--------6--------6--6--6-|
|----7--7-----7--7-----7--7----------|----7--7-----7--7-----7--7----------|
| [..] [..] [..] [..] [..] [..]
|
|------------------------------------|------------------------------------|
|------------------------------------|-------------------7--7--7--7--7--7-|
|------------------------------------|-8--8--8--8--8--8-------------------|
|-9--9--9--9--9--9--9--9--9--9--9--9-|------------------------------------|
|------------------------------------|------------------------------------|
|------------------------------------|------------------------------------|
[.......................................................................]

on - ly the ho - ly re -turn - ing from the
brave man re -deem - er he brought us back to____
|-----------------------------|-------------------|-------------------------|
|-----------------------------|-------------------|-------------------------|
|-----------------------------|-------------------|-------------------------|
|-4------5--------------------|---------%---------|-4-----5-----7-----5-----|
|-5------7--------------------|-------------------|-5-----7-----9-----7-----|
|---0-0----0-0--0-00-0--0-0-0-|-------------------|---0-0---0-0---0-0---0-0-|
| [.] [................] [.] [.] [.] [.]
|
|-----------------------------|-------------------|-------------------------|
|-----------------------------|-------------------|-------------------------|
|-----------------------------|-------------------|-------------------------|
|-----------------------------|-------------------|-------------------------|
|-----------------------------|-------------------|-------------------------|
|-----------------------------|-------------------|-------------------------|


light. We
__________________life (oh, yes he did) Now
|------------------------------------|------------------------------------|
|------------------------------------|------------------------------------|
|------------------------------------|------------------------------------|
|-4--------4--------4--------4--4--4-|-4--------4--------4--------4-------|
|-5--------5--------5--------5--5--5-|-6--------6--------6--------6-------|
|----7--7-----7--7-----7--7----------|----7--7-----7--7-----7--7-----7--7-|
| [..] [..] [..] [..] [..] [..] [..]
| Tr.
|------------------------------------|-Tr.---------------7-8--------------|
|-------------------Tr.--------------|-7-8--------------------------------|
|-Tr.---------------8-9--------------|------------------------------------|
|-9-10-------------------------------|------------------------------------|
|------------------------------------|------------------------------------|
|------------------------------------|------------------------------------|


$2 mark

fall to the ground___ and we pray cause he's the
fall to the ground____________and pray cause he will
|------------------------------------|------------------------------------|
|------------------------------------|------------------------------------|
|-9-----------------7----------------|-5-----------------5--------7-------|
|-9-----------------7----------------|-5-----------------5--------7-------|
|-7-----------------5----------------|-3-----------------3--------5-------|
|------------------------------------|------------------------------------|
|
|
|------------------------------------|------------------------------------|
|------------------------------------|------------------------------------|
|-9~~~~~~~~~~~~~~~~~~~~~~~~~~~~~~~~~-|------------------------------------|
|------------------------------------|------------------------------------|
|------------------------------------|------------------------------------|
|------------------------------------|------------------------------------|


one
come ( the one )
|------------------------------------|------------------------------------|
|------------------------------------|------------------------------------|
|----------9-----------------9-------|----------9--------5--------4-------|
|----------9-----------------9-------|----------9--------5--------4-------|
|----------7-----------------7-------|----------7--------3--------2-------|
|-0--0--0-----------0--0--0----------|-0--0--0----------------------------|
| [.....] [.....] [.....]
|
|----------12---------------17-------|---------12-------------------------|
|-------15^15------------20^20-------|------15^15-------------------------|
|------------------------------------|------------------------------------|
|------------------------------------|------------------------------------|
|------------------------------------|------------------------------------|
|------------------------------------|------------------------------------|


No de - mons left in this world since he has______
No de - mons left in this world since he has______
|------------------------------------|------------------------------------|
|------------------------------------|------------------------------------|
|-9-----------------7----------------|-5-----------------5--------7-------|
|-9-----------------7----------------|-5-----------------5--------7-------|
|-7-----------------5----------------|-3-----------------3--------5-------|
|------------------------------------|------------------------------------|
|
|
|------------------------------------|------------------------------------|
|------------------------------------|------------------------------------|
|------------------------------------|------------------------------------|
|------------------------------------|------------------------------------|
|------------------------------------|------------------------------------|
|------------------------------------|------------------------------------|


_________won______
_________won______
|-----------------------------------||-----------------||
|-----------------------------------||-----------------||
|----------9-----------------9------||----------9------||
|----------9-----------------9------||----------9------||
|----------7-----------------7------||----------7------||
|-0--0--0-----------0--0--0---------||-0--0--0---------||
| [.....] [.....] [.....]
|
|----------12---------------17------||---------12------||
|-------15^15------------20^20------||------15^15------||
|-----------------------------------||-----------------||
|-----------------------------------||-----------------||
|-----------------------------------||-----------------||
|-----------------------------------||-----------------||



||-------------------------------|
||-------------------------------|
||-------------------------------|
||-9--9p7p5--7-5-----------------|
||---------------9--7-9-5--7-5-0-|
||-------------------------------|
|| [...........................]
||
||-------------------------------|
||-------------------------------|
||-------------------------------|
||-------------------------------|
||-------------------------------|
||-------------------------------|



If you're here for the First time, then Continue !
For the second time ? Jump to Coda1 section !
For The other I think that You will happy to go to Coda2 Section !



Oh, hear what I say_________________________________

|------------------------------------|------------------------------------|
|------------------------------------|------------------------------------|
|------------------------------------|------------------------------------|
|-4----------------------------------|-4-----------------4--4--4--4--4--4-|
|-2----------------------------------|-2-----------------2--2--2--2--2--2-|
|------------------------------------|------------------------------------|
|
|
|------------------------------------|-------------------Tr.--------------|
|------------------------------------|-Tr.---------------7-8--------------|
|-Tr.--------------------------------|-8-9--------------------------------|
|-9-10-------------------------------|------------------------------------|
|------------------------------------|------------------------------------|
|------------------------------------|------------------------------------|


All men come, to see the king of the world The

|------------------|------------------|------------------|-----------------|
|------------------|------------------|------------------|-----------------|
|------------------|------------------|------------------|-----------------|
|-9-------12-------|-9----------------|-5-------7--------|-12--------------|
|-7-------10-------|-7----------------|-3-------5--------|-10--------------|
|------------------|------------------|------------------|-----------------|
|
|
|------------------|------------------|------------------|-----------------|
|------------------|------------------|------------------|-----------------|
|------------------|------------------|------------------|-----------------|
|------------------|------------------|------------------|-----------------|
|------------------|------------------|------------------|-----------------|
|------------------|------------------|------------------|-----------------|


time has come for ever-y-one, the saviour stands for all of us now

|------------------|------------------|------------------|-----------------|
|------------------|------------------|------------------|-----------------|
|------------------|------------------|------------------|-----------------|
|------------------|-9-----------9----|-7-----------7----|-12---------12---|
|-9-----------9----|-7-----------7----|-5-----------5----|-10---------10---|
|-7-----------7----|------------------|------------------|-----------------|
|
|
|------------------|------------------|------------------|-----------------|
|------------------|------------------|------------------|-----------------|
|------------------|------------------|------------------|-----------------|
|------------------|------------------|------------------|-----------------|
|------------------|------------------|------------------|-----------------|
|------------------|------------------|------------------|-----------------|


praise the 1 wo'l de -stroy the e-vil a-byss of the void His

|------------------|------------------|------------------|-----------------||
|------------------|------------------|------------------|-----------------||
|------------------|------------------|------------------|-----------------||
|------------------|-9----------------|-5-------7--------|-9------9---5----||
|-9-----------9----|-7----------------|-3-------5--------|-7------7---7----||
|-7-----------7----|------------------|------------------|-----------------||
|
|
|------------------|------------------|------------------|-----------------||
|------------------|------------------|------------------|-----------------||
|------------------|------------------|------------------|-----------------||
|------------------|------------------|------------------|-----------------||
|------------------|------------------|------------------|-----------------||
|------------------|------------------|------------------|-----------------||

Go back to $1 mark



CODA1 SECTION


Now, lis - en to what I say

|------------------------------------|------------------------------------|
|------------------------------------|------------------------------------|
|------------------------------------|------------------------------------|
|-4----------------------------------|-4-----------------4--4--4--4-------|
|-2----------------------------------|-2-----------------2--2--2--2-------|
|------------------------------------|------------------------------------|
|
|
|------------------------------------|-------------------Tr.--------------|
|------------------------------------|-Tr.---------------7-8--------------|
|-Tr.--------------------------------|-8-9--------------------------------|
|-9-10-------------------------------|------------------------------------|
|------------------------------------|------------------------------------|
|------------------------------------|------------------------------------|


All men come, to see land of the free The

|------------------|------------------|------------------|-----------------|
|------------------|------------------|------------------|-----------------|
|------------------|------------------|------------------|-----------------|
|-9-------12-------|-9----------------|-5-------7--------|-12--------------|
|-7-------10-------|-7----------------|-3-------5--------|-10--------------|
|------------------|------------------|------------------|-----------------|
|
|
|------------------|------------------|------------------|-----------------|
|------------------|------------15b15-|------------------|-----------------|
|------------------|-14b14b14b12------|------------------|-----------------|
|------------------|------------------|------------------|-----------------|
|------------------|------------------|------------------|-----------------|
|------------------|------------------|------------------|-----------------|


time has come for ever-y-one, the saviour stands for all of us now

|------------------|------------------|------------------|-----------------|
|------------------|------------------|------------------|-----------------|
|------------------|------------------|------------------|-----------------|
|------------------|-9-----------9----|-7-----------7----|-12---------12---|
|-9-----------9----|-7-----------7----|-5-----------5----|-10---------10---|
|-7-----------7----|------------------|------------------|-----------------|
|
|
|------------------|------------------|------------------|-----------------|
|------------------|------------------|------------------|-----------------|
|------------------|------------------|------------------|-----------------|
|------------------|------------------|------------------|-----------------|
|------------------|------------------|------------------|-----------------|
|------------------|------------------|------------------|-----------------|


praise the 1 wo'l de -stroy the e-vil abyss of the void the

|------------------|------------------|------------------|-----------------|
|------------------|------------------|------------------|-----------------|
|------------------|------------------|------------------|-----------------|
|------------------|-9----------------|-5-------7--------|-9---------------|
|-9-----------9----|-7----------------|-3-------5--------|-7---------------|
|-7-----------7----|------------------|------------------|-----------------|
|
|
|------------------|------------------|------------------|-----------------|
|------------------|------------------|------------------|----15b15b-15b15-|
|------------------|------------------|------------------|-----------------|
|------------------|------------------|------------------|-----------------|
|------------------|------------------|------------------|-----------------|
|------------------|------------------|------------------|-----------------|


e-vil abyss of the void______________

|------------------|------------------||
|------------------|------------------||
|------------------|------------------||
|-5-------7--------|-9----------------||
|-3-------5--------|-7----------------||
|------------------|------------------||
|
|
|------------------|-17b17------------||
|------------------|------------------||
|------------------|------------------||
|------------------|------------------||
|------------------|------------------||
|------------------|------------------||



|------------------|------------------|------------------|-----------------|
|------------------|------------------|------------------|-----------------|
|------------------|------------------|------------------|-----------------|
|------------------|------------------|------------------|-----------------|
|------------------|------------------|------------------|-----------------|
|------------------|------------------|------------------|-----------------|
|
| [ with Volume ]
|------------------|------------------|------------------|-----------------|
|------------------|------------------|------------------|-----------------|
|------------------|------------------|------------------|-----------------|
|------------------|------------------|------------------|-----------------|
|------------------|------------4-5---|-4----------------|-4-4--4----------|
|------------------|------------------|------------------|-----------------|


His

|------------------|------------------|------------------|-----------------|
|------------------|------------------|------------------|-----------------|
|------------------|------------------|------------------|-----------------|
|------------------|------------------|------------------|-----------------|
|------------------|------------------|------------------|-----------------|
|------------------|------------------|------------------|-----------------|
|
| [ Harm. ]
|---------------12-|------------------|------------------|-----------------|
|------------------|-12---------------|------------------|-----------------|
|------------------|------------------|------------------|-----------------|
|------------------|------------------|------------------|-Tr.-------------|
|------------------|------------------|------------------|-6-7---------6\--|
|------------------|------------------|------------------|-----------------|


armour still shining thoug it's torn by fights 

|------------------|------------------|------------------|-----------------|
|------------------|------------------|------------------|-----------------|
|------------------|------------------|------------------|-----------------|
|------------------|------------------|------------------|-----------------|
|------------------|------------------|------------------|-----------------|
|------------------|------------------|------------------|-----------------|
|
|
|------------------|------------------|------------------|-----------------|
|------------------|------------------|------------------|-----------------|
|------------------|------------------|------------------|-----------------|
|------------------|------------------|------------------|----------7----7-|
|------------------|------------------|--------------7-9-|-10-9-10----10---|
|------------------|------------------|------------------|-----------------|


The brave man he battled on through the night His

|------------------|------------------|------------------|-----------------|
|------------------|------------------|------------------|-----------------|
|------------------|------------------|------------------|-----------------|
|------------------|------------------|------------------|-----------------|
|------------------|------------------|------------------|-----------------|
|------------------|------------------|------------------|-----------------|
|
|
|------------------|------------------|------------------|-----------------|
|------------------|------------------|------------------|-----------------|
|------------------|------------------|------------------|-----------------|
|-7/9--------------|---------9h10-9-7-|-7h9--------------|-999-9--------9--|
|------------------|------------------|------------------|-----------------|
|------------------|------------------|------------------|-----------------|


eys th wr gl-mng lk fire and he's pre -pared he's the one The

|------------------|------------------|------------------|-----------------|
|------------------|------------------|------------------|-----------------|
|------------------|------------------|------------------|-----------------|
|------------------|------------------|------------------|-----------------|
|------------------|------------------|------------------|-----------------|
|------------------|------------------|------------------|-----------------|
|
|
|------------------|------------------|-Tr.--------------|Tr.--------------|
|------------------|--------------7-8-|-7-8--------8p7h8p|7-8-------8-10p8-|
|-7h9------------9-|-9~---------9-----|------------------|-----------------|
|------------------|------------------|------------------|-----------------|
|------------------|------------------|------------------|-----------------|
|------------------|------------------|------------------|-----------------|


Yng mn he rises his head up to the land in the sun Wher-

|------------------|------------------|------------------|-----------------|
|------------------|------------------|------------------|-----------------|
|------------------|------------------|------------------|-----------------|
|------------------|------------------|------------------|-----------------|
|------------------|------------------|------------------|-----------------|
|------------------|------------------|------------------|-----------------|
|
|
|------------------|----------------7-|-8--7-----7-----7-|-8----8--7-7-7---|
|-10~-----10-1010p8|10b10-----10-10---|------10----10----|---10------------|
|------------------|------------------|------------------|-----------------|
|------------------|------------------|------------------|-----------------|
|------------------|------------------|------------------|-----------------|
|------------------|------------------|------------------|-----------------|


ever my spirit may fly up to this heav - en -ly fight

|------------------|------------------|------------------|-----------------|
|------------------|------------------|------------------|-----------------|
|------------------|------------------|------------------|-----------------|
|------------------|------------------|------------------|-----------------|
|----------5h7--7--|-7--------5h7--7--|------------------|-----------Tr.---|
|------------------|------------------|----------5h7--7--|-7-----5h7-5-7---|
|
| Tr.
|78---7------------|78---7------------|-7-8----------8-8-|-8-7-7-7~------7-|
|--10--810-78-7810-|--10--810-78-7810-|------------------|-----------------|
|------------9-----|------------9-----|------------------|-----------------|
|------------------|------------------|------------------|-----------------|
|------------------|------------------|------------------|-----------------|
|------------------|------------------|------------------|-----------------|


I knw tht I will retrn frm a misson be -yond our skies_____________ Now

|------------------|------------------|------------------|-----------------||
|------------------|------------------|------------------|-----------------||
|------------------|------------------|------------------|-----------------||
|------------------|------------------|------------------|-----------------||
|----------5h7--7--|-7----5h7-5h7-5h7-|------------------|-----------------||
|------------------|------------------|----------5h7--7--|-7---------------||
|
|
|--7h8-8--8h10-10--|-10/12-12-12/14-14|-14-14~-----------|-17b17-----------||
|------------------|------------------|------------------|-----------------||
|------------------|------------------|------------------|-----------------||
|------------------|------------------|------------------|-----------------||
|------------------|------------------|------------------|-----------------||
|------------------|------------------|------------------|-----------------||


|------------------------------------|------------------------------------|
|------------------------------------|------------------------------------|
|------------------------------------|------------------------------------|
|-9--9--9--9-------------------------|-9--9--9--9-------------------------|
|-7--7--7--7-------------------------|-7--7--7--7-------------------------|
|------------------------------------|------------------------------------|
|
|
|-------------------8--5--7-----5----|-------------------8--7--5--5h7-----|
|----------------------------8-----7-|------------------------------------|
|------------------------------------|------------------------------------|
|------------------------------------|------------------------------------|
|------------------------------------|------------------------------------|
|------------------------------------|------------------------------------|
[..............] [..........]


|------------------------------------|------------------------------------|
|------------------------------------|------------------------------------|
|------------------------------------|------------------------------------|
|-7--7--7--7--7--7-------------------|-4----------------------------------|
|-5--5--5--5--5--5-------------------|-2----------------------------------|
|------------------------------------|------------------------------------|
|
| Tr.
|------------------------------------|-------------------Tr.------7-8-----|
|------------------------------------|----------Tr.------7-8--------------|
|------------------------------------|-Tr.------8-9-----------------------|
|------------------------------------|-9-10-------------------------------|
|------------------------------------|------------------------------------|
|------------------------------------|------------------------------------|

|------------------------------------||
|------------------------------------||
|------------------------------------||
|------------------------------------||
|------------------------------------||
|------------------------------------||
|
| Tr. Tr. Tr.
|-11-12----14-15----19-20------------||
|------------------------------------||
|------------------------------------||
|------------------------------------||
|------------------------------------||
|------------------------------------||


|------------------------------------|------------------------------------|
|------------------------------------|------------------------------------|
|------------------------------------|------------------------------------|
|-------------------5----------------|------------------------------------|
|-2-----------------5----------------|-2----------------------------------|
|-0-----------------3----------------|-0----------------------------------|
|
|
|------------------------------------|------------------------------------|
|-15b15-------------15~~~~~~~~~~~~~~-|15b15-15-12-------------------------|
|------------------------------------|------------14-12h14b14-14p12----12~|
|------------------------------------|------------------------------14----|
|------------------------------------|------------------------------------|
|------------------------------------|------------------------------------|


|------------------------------------|------------------------------------|
|------------------------------------|------------------------------------|
|-5-----------------7----------------|------------------------------------|
|-5-----------------7----------------|-5----------------------------------|
|-3-----------------5----------------|-5----------------------------------|
|------------------------------------|-3----------------------------------|
|
|
|------------------------------------|------------------------------------|
|------------------------------------|------------------151515-1515151515-|
|-14b14-------------14~~~~~~~~~~~~~~-|-14-12--------/14-------------------|
|------------------------------------|------------------------------------|
|------------------------------------|------------------------------------|
|------------------------------------|------------------------------------|


|------------------------------------|------------------------------------|
|------------------------------------|------------------------------------|
|-4--------------------------4-------|-9--------------------------9-------|
|-4--------------------------4-------|-9--------------------------9-------|
|-2--------------------------2-------|-7--------------------------7-------|
|------------------------------------|------------------------------------|
|
|
|-17b17~~~~~~~~~~~~~~~~~17---17------|17b17-17p15-------------------------|
|------------------------------------|------------17~~~~~~~~~~~~~~--------|
|------------------------------------|----------------------------x-------|
|------------------------------------|------------------------------------|
|------------------------------------|------------------------------------|
|------------------------------------|------------------------------------|


|------------------------------------|------------------------------------|
|------------------------------------|------------------------------------|
|-7--------------------------7-------|------------------------------------|
|-7--------------------------7-------|-5--------------------------5-------|
|-5--------------------------5-------|-5--------------------------5-------|
|------------------------------------|-3--------------------------3-------|
|
|
|------------------------------------|------------------------------------|
|-8----------------------------------|----------------------8-------------|
|----9--7--9--7-----9--7-------------|---------------7---9-----9--7-----9-|
|----------------9--------9--7--5--7-|-7-7-7p5-5-7/9-----------------9----|
|------------------------------------|------------------------------------|
|------------------------------------|------------------------------------|


|------------------------------------|------------------------------------|
|------------------------------------|------------------------------------|
|-4--------------------------4-------|------------------------------------|
|-4--------------------------4-------|------------------------------------|
|-2--------------------------2-------|-2--------------------------2-------|
|------------------------------------|-0--------------------------0-------|
|
|
|----------------------10-10---------|------------------------------------|
|-8-10b10-10-----------------10-10p8-|-8~~~~~~~-8\------15---15---17---17-|
|------------------------------------|------------------------------------|
|------------------------------------|------------------------------------|
|------------------------------------|------------------------------------|
|------------------------------------|------------------------------------|


|------------------------------------|------------------------------------||
|------------------------------------|------------------------------------||
|-5-----------------7----------------|-9--------------------------9\------||
|-5-----------------7----------------|-9--------------------------9\------||
|-3-----------------5----------------|-7--------------------------7\------||
|------------------------------------|------------------------------------||
|
|
|------------------------------------|22b22-------22-22b22~~~~~~----------||
|-17~~~~~~~~~~~~~~~-17\--------------|---------------------------12-------||
|------------------------------------|------------------------------14-12-||
|------------------------------------|------------------------------------||
|------------------------------------|------------------------------------||
|------------------------------------|------------------------------------||


||------------------------------------|------------------------------------|
||------------------------------------|------------------------------------|
||------------------------------------|------------------------------------|
||-5-----------------9----------------|-5--------5--------7-----9----10--9-|
||-7----------------10----------------|-7--------7--------9----10----12-10-|
||----0--0--0--0--0-----0--0--0--0--0-|----0--0-----0--0-----0-----0-------|
|| [...........] [...........] [..] [..] [.] [...]
||
||------------------------------------|----------12-15--15/19-15-----------|
||------------------------------------|--------12----------------17--------|
||------------------12\---------------|-----12----------------------16-----|
||-14~~~~~~~~~~~~~~-------------------|---14--------------------------17---|
||------------------------------------|-14------------------------------19-|
||------------------------------------|------------------------------------|

|------------------------------------|------------------------------------|
|------------------------------------|------------------------------------|
|------------------------------------|------------------------------------|
|------------------------------------|------------------------------------|
|-9--9--9--9--9--9--9--9--9--9--9--9-|-8--9--9--9--9--9--9--9--9--9--9--9-|
|-7--7--7--7--7--7--7--7--7--7--7--7-|-6--7--7--7--7--7--7--7--7--7--7--7-|
| [.............................] [.............................]
|
|-17-14-------------------------14-17|19b19--------------19~~~~~~~~~~~~~~-|
|-------11-------------------16------|------------------------------------|
|----------17-14-------14-17---------|------------------------------------|
|----------------16-16---------------|------------------------------------|
|------------------------------------|------------------------------------|
|------------------------------------|------------------------------------|


|------------------------------------|------------------------------------|
|------------------------------------|------------------------------------|
|------------------------------------|------------------------------------|
|-5--------5--------4--------4-------|-5--------5--------7-----9----10--9-|
|-7--------7--------6--------6-------|-7--------7--------9----10----12-10-|
|----0--0-----0--0-----0--0-----0--0-|----0--0-----0--0-----0-----0-------|
| [..] [..] [..] [..] [..] [..] [.] [.]
| Tr. Tr. Tr. Tr.
|-17-19----15-17----14-15----12-10---|--Tr.------Tr.------Tr.-------------|
|------------------------------------|-15-17----13-15----12-13------------|
|------------------------------------|----------------------------14b14---|
|------------------------------------|------------------------------------|
|------------------------------------|------------------------------------|
|------------------------------------|------------------------------------|


|------------------------------------|------------------------------------||
|------------------------------------|------------------------------------||
|------------------------------------|------------------------------------||
|------------------------------------|------------------------------------||
|-9--9--9--9--9--9--9--9--9--9--9--9-|-8--9--9--9--9--9--9--9--9--9--9--9-||
|-7--7--7--7--7--7--7--7--7--7--7--7-|-6--7--7--7--7--7--7--7--7--7--7--7-||
| [.............................] [.............................]
|
|------------------------------------|------------------------------------||
|-----15--15-------------------------|----------------------------8-----7-||
|--14b14--14-14p1214b14-12-----------|------------------------------------||
|-------------------------14-12------|------------------------------------||
|------------------------------14-13-|-12-10----10-1212b12-12~~~~~--------||
|------------------------------------|-------12---------------------------||


||------------------------------------|------------------------------------|
||------------------------------------|------------------------------------|
||------------------------------------|------------------------------------|
||-5--------5--------4--------4-------|-5--------5--------7-----9----10--9-|
||-7--------7--------6--------6-------|-7--------7--------9----10----12-10-|
||----0--0-----0--0-----0--0-----0--0-|----0--0-----0--0-----0-----0-------|
|| [..] [..] [..] [..] [..] [..] [.] [.]
||
||------------------------------------|------------------------------------|
||--7h8p7-7h8--------------10b10-10-8-|-7------7h8---------------------7h8-|
||-------------------9----------------|-------------------9~~~~~~~~~~~-----|
||------------------------------------|------------------------------------|
||------------------------------------|------------------------------------|
||------------------------------------|------------------------------------|


|------------------------------------|------------------------------------|
|------------------------------------|------------------------------------|
|------------------------------------|------------------------------------|
|------------------------------------|------------------------------------|
|-9--9--9--9--9--9--9--9--9--9--9--9-|-8--9--9--9--9--9--9--9--9--9--9--9-|
|-7--7--7--7--7--7--7--7--7--7--7--7-|-6--7--7--7--7--7--7--7--7--7--7--7-|
| [.............................] [.............................]
|
|------------------------------------|------------------------------------|
|-7~~~~~~~~~~~~~~~~------------------|------------------------------------|
|------------------------------------|------------------------------------|
|-------------------9-----9-----9--9-|-9~~~~~~~~~~~~~~~~------------------|
|------------------------------------|------------------------679-----679-|
|------------------------------------|--------------------578-----578-----|
[...............

|-------------------------------------------------------------|
|-------------------------------------------------------------|
|-------------------------------------------------------------|
|-5--------------5--------------4--------------4--------------|
|-7--------------7--------------6--------------6--------------|
|------0----0---------0----0---------0----0---------0----0----|
| [....] [....] [....] [....]
|
|-------------------------------------------------------------|
|-------------------------------------------------------------|
|----------------------------------------------------------11-|
|----------------------7-------------7-9-10-10-12-14-12-14----|
|-7-9-10-7-9-10-7-9-10---10-9-7-9-10--------------------------|
|-------------------------------------------------------------|
.............................................................

|-------------------------------------------------------------|
|-------------------------------------------------------------|
|-------------------------------------------------------------|
|-5--------------5--------------7---------9--------10----9----|
|-7--------------7--------------9--------10--------12---10----|
|------0----0---------0----0---------0---------0--------------|
| [....] [....] [.] [.]
|
|--------------------------12--14b14-----------------14-14p12-|
|-------------------12-1315-----------------------------------|
|---1112-111214-1214------------------------------------------|
|-14----------------------------------------------------------|
|-------------------------------------------------------------|
|-------------------------------------------------------------|
..................]


|------------------------------------|------------------------------------||
|------------------------------------|------------------------------------||
|------------------------------------|------------------------------------||
|------------------------------------|------------------------------------||
|-9--9--9--9--9--9--9--9--9--9--9--9-|-9--9--9--9--9--9--9--9--9--9--9--9-||
|-7--7--7--7--7--7--7--7--7--7--7--7-|-7--7--7--7--7--7--7--7--7--7--7--7-||
| [.............................] 
|
|-14b14b14b14b14b14b14b14b14b14~~~~~-|-7----------------------------------||
|------------------------------------|-7--------7----7h8------------7h8p7-||
|------------------------------------|-8----------------------------------||
|------------------------------------|------------------------------------||
|------------------------------------|------------------------------------||
|------------------------------------|------------------------------------||

go back to $2 mark


CODA2 SECTION


Oh, hear what I

|--------------------------------------------------------------|
|--------------------------------------------------------------|
|--------------------------------------------------------------|
|-4------------------------------------------------------------|
|-2------------------------------------------------------------|
|--------------------------------------------------------------|
|
|
|--------------------------------------------------------------|
|--------------------------------------------------------------|
|-------8--9-8-------8-9-11-11-8-9-11-11-9-11-12-12-9-11-12-12-|
|-7--9---------9--7--------------------------------------------|
|--------------------------------------------------------------|
|--------------------------------------------------------------|
[...............]

say___________________________________________________________

|-------------------------------------------------------------||
|-------------------------------------------------------------||
|-------------------------------------------------------------||
|-4-----------------------------4----4----4----4----4----4----||
|-2-----------------------------2----2----2----2----2----2----||
|-------------------------------------------------------------||
|
|
|----------------------------1112-1112-14---20-19-18-20-18-19-||
|---------1011121312-1012-13----------------------------------||
|-9-11-12-----------------------------------------------------||
|-------------------------------------------------------------||
|-------------------------------------------------------------||
|-------------------------------------------------------------||


All men come, to

||------------------------------------|------------------------------------|
||------------------------------------|------------------------------------|
||------------------------------------|------------------------------------|
||-------------------5----------------|------------------------------------|
||-2-----------------5----------------|-2----------------------------------|
||-0-----------------3----------------|-0----------------------------------|
||
||
||-19~~~~~~~~~~~~---------------------|------------------------------------|
||------------------------------------|------------------------------------|
||----------------11h12~~~~-11~~~~~~~-|-11h12~~~~~~~~~~~~~~~~~~~~~~~~~~~~~-|
||------------------------------------|------------------------------------|
||------------------------------------|------------------------------------|
||------------------------------------|------------------------------------|


see the king of the world The

|------------------------------------|------------------------------------|
|------------------------------------|------------------------------------|
|-5------------------7---------------|------------------------------------|
|-5------------------7---------------|-5----------------------------------|
|-3------------------5---------------|-3----------------------------------|
|------------------------------------|-3----------------------------------|
|
|
|------------------------------------|------------------------------------|
|------------------------------------|------------------------------------|
|-11h12~~~~~~~~~~~~-11------11-12-11-|-12~~~~~~~~~~~~~~~~~~~~~~~~~~~~~~~~-|
|------------------------------------|------------------------------------|
|------------------------------------|------------------------------------|
|------------------------------------|------------------------------------|


time has come for ever - y - one the

|------------------------------------|------------------------------------|
|------------------------------------|------------------------------------|
|-4--------------------------4-------|-9--------------------------9-------|
|-4--------------------------4-------|-9--------------------------9-------|
|-2--------------------------2-------|-7--------------------------7-------|
|------------------------------------|------------------------------------|
|
|
|------------------------------------|------------------------------------|
|------------------------------------|------------------------------------|
|-11~~~~~~~~~~~~~~~-11h12-p-11-------|--------------------------11---12---|
|------------------------------------|-/14-----------------14-------------|
|------------------------------------|------------------------------------|
|------------------------------------|------------------------------------|


sav - iour stands for all of us, now

|------------------------------------|------------------------------------|
|------------------------------------|------------------------------------|
|-7--------------------------7-------|------------------------------------|
|-7--------------------------7-------|-5--------------------------5-------|
|-5--------------------------5-------|-5--------------------------5-------|
|------------------------------------|-3--------------------------3-------|
|
|
|------------------------------------|------------------------------------|
|--------------------------12---13---|-12~~~~~~~~~~~~~~~~~~~~~~~~~~~~~~~~-|
|-12h14~~~~~~~~~~~~~~-14-------------|------------------------------------|
|------------------------------------|------------------------------------|
|------------------------------------|------------------------------------|
|------------------------------------|------------------------------------|


praise the one wo'll de -stroy, the

|------------------------------------|------------------------------------|
|------------------------------------|------------------------------------|
|-4--------------------------4-------|------------------------------------|
|-4--------------------------4-------|------------------------------------|
|-2--------------------------2-------|-2--------------------------2-------|
|------------------------------------|-0--------------------------0-------|
|
|
|------------------------------------|------------------------------------|
|----------------------------15b-----|rb15~~~~~~~~~~~~~~~~~~~~~~~~~~~~~~~-|
|------------------------------------|------------------------------------|
|------------------------------------|------------------------------------|
|------------------------------------|------------------------------------|
|------------------------------------|------------------------------------|


e - vil a - byss of the void the

|------------------------------------|------------------------------------|
|------------------------------------|------------------------------------|
|-5------------------7---------------|-9----------------------------------|
|-5------------------7---------------|-9----------------------------------|
|-3------------------5---------------|-7----------------------------------|
|------------------------------------|------------------------------------|
|
|
|---12--------------14---------------|---15-------------------------------|
|15b15-----------17b17---------------|18b18-------------------------------|
|------------------------------------|------------------------------------|
|------------------------------------|------------------------------------|
|------------------------------------|------------------------------------|
|------------------------------------|------------------------------------|


e - vil a - byss of the void_____________ the

|------------------------------------|------------------------------------|
|------------------------------------|------------------------------------|
|-5------------------7---------------|-9----------------------------------|
|-5------------------7---------------|-9----------------------------------|
|-3------------------5---------------|-7----------------------------------|
|------------------------------------|------------------------------------|
|
|
|---12--------------14---------------|---15-------------------------------|
|15b15-----------17b17---------------|18b18-------------------------------|
|------------------------------------|------------------------------------|
|------------------------------------|------------------------------------|
|------------------------------------|------------------------------------|
|------------------------------------|------------------------------------|


e - vil a - byss of the void_________________________

|------------------------------------|------------------------------------|
|------------------------------------|------------------------------------|
|-5------------------7---------------|-4----------------------------------|
|-5------------------7---------------|-4----------------------------------|
|-3------------------5---------------|-2----------------------------------|
|------------------------------------|------------------------------------|
|
|
|---12--------------14---------------|------------------------------------|
|15b15-----------17b17---------------|17b17-----17-----1717------17-------|
|------------------------------------|------------------------------------|
|------------------------------------|------------------------------------|
|------------------------------------|------------------------------------|
|------------------------------------|------------------------------------|


______________________________________

|------------------------------------|
|------------------------------------|
|------------------------------------|
|------------------------------------|
|------------------------------------|
|------------------------------------|
|
|
|------------------------------------|
|-1717----17--17---------------------|
|------------------------------------|
|------------------------------------|
|------------------------------------|
|------------------------------------|


_________________________________________________________________________

|-------------------------------------------------------------|------------||
|-------------------------------------------------------------|------------||
|-------------------------------------------------------------|------------||
|-9-----9p7p5----7----5---------------------------------------|------------||
|--------------------------9----7----9----5----7----5----0----|-2----------||
|-------------------------------------------------------------|------------||
|[.......................................................]
|
|-1415171514--------------------------------------------------|------------||
|------------17-16--------------------------------------------|------------||
|------------------1714161716-14------------------------------|------------||
|--------------------------------1716141314161413-------------|------------||
|-------------------------------------------------151412------|------------||
|--------------------------------------------------------1514-|-12---------||

End of a great Work !
You can put your finger in cold water...
Version 1.0
comments
We did not receive enough feedback on this tab! Please rate:
print report bad tab
1 2 3 4 5
I want to post or [tab]
guest
You may want to rate the tab now too:
select rating
Please do not post tabs as comments. Select "correction" instead!