Oops, an error
Loading. Please wait.

Beyond The Black Hole Bass Tab

ver1
ver1

Whole song

Interactive

More versions @911Tabs.com
346 views 1 this week
no commentswrite comment
1 2 3 4 5
please rate
Autoscroll
+/-
esc
set tempo
stop
Difficulty
Tuning
novice
D# G# C# F# A# D#
NEW! There's an official Ultimate Guitar app which is ideal
for learning songs when you're away from computer. Get the app
WARNING: You are trying to view
                                    content from Ultimate-Guitar.com
                                    in an unauthorized application,
                                    which is prohibited.

                                    Please use an official Ultimate
                                    Guitar Tabs application for iPhone,
                                    iPad or Android to access legitimate
                                    chords, guitar, bass, and drum tabs
                                    from Ultimate-Guitar.com database.

                                    Type "ultimate guitar tabs" in Apple
                                    App Store's or Android Market's
                                    search to find the application.
 Beyond The Black Hole                               


                                                                       Gamma Ray
Dirk



      S E  S E  S S S E  S E  S S S E  S E  E  Q     
F#||------------------------------------------------|
C#||--4----4----4---4----4----4---4----4----4-------|
G#||------------------------------------------------|
D#||------------------------------------------------|


  S E  S E  S S S E  S E  S S S E  S E  E  Q     
------------------------------------------------|
--4----4----4---4----4----4---4----4----4-------|
------------------------------------------------|
------------------------------------------------|


  S E  S E  S S S E  S E  S S S E  S E  E  Q       S E  S E  S S S E  S E  S S  
------------------------------------------------|------------------------------|
--4----4----4---4----4----4---4----4----4-------|--4----5----6---7----8----9---|
------------------------------------------------|------------------------------|
------------------------------------------------|------------------------------|


  W                    S S S S S S S S S S S S S S S S  
--------------------|----------------------------------|
--------------------|----------------------------------|
--------------------|----------------------------------|
--2/----------------|--3-3-3-3-3-3-3-3-3-3-3-3-3-3-3-3-|


  S S S S S S S S S S S S S S S S    S S S S S S S S S S S S S S S S  
----------------------------------|----------------------------------|
----------------------------------|----------------------------------|
----------------------------------|----------------------------------|
--3-3-3-3-3-3-3-3-3-3-3-3-2-2-2-2-|--0-0-0-0-0-0-0-0-0-0-0-0-0-0-0-0-|


  S S S S S S S S S S S S S S S S    S S S S S S S S S S S S S S S S  
----------------------------------|----------------------------------|
----------------------------------|----------------------------------|
------------------7-7-7-7-5-5-5-5-|--3-3---------3-3-3-3-3-3---------|
--0-0-0-0-0-0-0-0-----------------|------3-3-3-3-------------3-3-3-3-|


  S S S S S S S S S S S S S S S S    S S S S S S S S S S S S S S S S  
----------------------------------|----------------------------------|
----------------------------------|----------------------------------|
--5-5---------3-3-------------2-2-|--5-5-5-5-5-5-5-5-5-5-5-5-5-5-5-5-|
------3-3-3-3-----3-3-3-3-3-3-----|----------------------------------|


  S S S S S S S S S S S S S S S S    S S S S S S S S S S S S S S S S  
----------------------------------|----------------------------------|
----------------------------------|----------------------------------|
--5-5-3-3-2-2-3-3-2-2-0-0---------|----------------------------------|
--------------------------3-3-2-2-|--3-3-3-3-3-3-3-3-3-3-3-3-3-3-3-3-|


  S S S S S S S S S S S S S S S S    S S S S S S S S S S S S S S S S  
----------------------------------|----------------------------------|
----------------------------------|----------------------------------|
----------------------------------|----------------------------------|
--3-3-3-3-3-3-3-3-3-3-3-3-2-2-2-2-|--0-0-0-0-0-0-0-0-0-0-0-0-0-0-0-0-|


  S S S S S S S S S S S S S S S S    S S S S S S S S S S S S S S S S  
----------------------------------|----------------------------------|
----------------------------------|----------------------------------|
------------------7-7-7-7-5-5-5-5-|--3-3---------3-3-3-3-3-3---------|
--0-0-0-0-0-0-0-0-----------------|------3-3-3-3-------------3-3-3-3-|


  S S S S S S S S S S S S S S S S    S S S S S S S S S S S S S S S S  
----------------------------------|----------------------------------|
----------------------------------|----------------------------------|
--5-5---------5-5-------------2-2-|--5-5-5-5-5-5-5-5-5-5-5-5-5-5-5-5-|
------3-3-3-3-----3-3-3-3-3-3-----|----------------------------------|


  S S S S S S S S Q    Q         E  S S S S E  E  S S S S E   
----------------------------||-------------------------------|
----------------------------||*------------------------------|
--5-5-5-5-5-5-5-5-5----6----||*-------7-L---7-----7-------7--|
----------------------------||---0--0-----0----0----0-L-0----|


  E  S S S S E   E.  S E  E     E  S S S S E  E  S S S S E   
-----------------------------|------------------------------|
-----------------------------|-------------------5-------5--|
-------7-L-7-9--10---9-L--7--|--3--3-3-L-3-3--3----3-L-3----|
--0--0-----------------------|------------------------------|


  E  S S S S E  E.  S E  E     E  S S S S E  E.  S E  E   
----------------------------|----------------------------|
-----5----------------------|----------------------------|
--3----3-L-3-3--3---5-L--3--|--------------------7-L--5--|
----------------------------|--3--3-3-L-3-3--3-----------|


  E  S S S E.  E.  S E  E     E  S S S S E  E  S S S S E   
---------------------------|------------------------------|
-----5---------------------|------------------------------|
-------------------2-L--3--|--5--5-5-L-5-5--5--5-5-L-5-5--|
--3----3-L-3---3-----------|------------------------------|


  E  S S S S E  Q    Q         E  S S S S E  E  S S S S E     W                 
---------------------------||------------------------------|-------------------|
--------------------------*||------------------------------|-------------------|
--5--5-5-5-5-5--5----6----*||--2--2-2-L-2-2--2--2-2-L-2-2--|--2----------------|
---------------------------||------------------------------|-------------------|


  S S S S S S S S S S S S S S S S    S S S S S S S S S S S S S S S S  
----------------------------------|----------------------------------|
----------------------------------|----------------------------------|
--3-3-3-3-3-3-3-3-3-3-3-3-3-3-3-3-|--3-3-3-3-3-3-3-3-3-3-3-3-3-3-5-5-|
----------------------------------|----------------------------------|


  S S S S S S S S S S S S S S S S    S S S S S S S S S S S S S S S S  
----------------------------------|----------------------------------|
----------------------------------|----------------------------------|
--7-7-7-7-7-7-7-7-7-7-7-7-7-7-7-7-|----------2-2-2-2-0-0-0-0-2-2-2-2-|
----------------------------------|--0-0-0-0-------------------------|


  S S S S S S S S S S S S S S S S    S S S S S S S S E.  S E  E   
----------------------------------|------------------------------|
----------------------------------|------------------------------|
--3-3-3-3-3-3-3-3-3-3-3-3-3-3-3-3-|--3-3-3-3-3-3-3-3-3---5-L--3--|
----------------------------------|------------------------------|


  W                   H        H             S S S S S S S S S S S S S S S S  
-------------------|--------------------||-----------------------------------|
-------------------|--------------------||*----------------------------------|
--2----------------|--3--------5--------||*----------------------------------|
-------------------|--------------------||---3-3-3-3-3-3-3-3-3-3-3-3-3-3-3-3-|


  S S S S S S S S S S S S S S S S    S S S S S S S S S S S S S S S S  
----------------------------------|----------------------------------|
----------------------------------|----------------------------------|
----------------------------------|----------------------------------|
--3-3-3-3-3-3-3-3-3-3-3-3-2-2-2-2-|--0-0-0-0-0-0-0-0-0-0-0-0-0-0-0-0-|


  S S S S S S S S S S S S S S S S    S S S S S S S S S S S S S S S S  
----------------------------------|----------------------------------|
----------------------------------|----------------------------------|
------------------7-7-7-7-5-5-5-5-|------3-3-3-3-----3-3-3-3---------|
--0-0-0-0-0-0-0-0-----------------|--3-3---------3-3---------3-3-3-3-|


  S S S S S S S S S S S S S S S S    S S S S S S S S S S S S S S S S  
----------------------------------|----------------------------------|
----------------------------------|----------------------------------|
----------------------------------|--5-5-5-5-5-5-----5-5-5-5-5-5-----|
--3-3-3-3-3-3-3-3-3-3-3-3-3-3-3-3-|--------------5-5-------------5-5-|


  S S S S S S S S Q    Q         Q    Q    Q    Q     
-----------------------------||----------------------|
----------------------------*||----------------------|
--5-5-5-5-5-5-5-5-5----6----*||--5----5----5----6----|
-----------------------------||----------------------|


  E  S S S S E  E  S S S S S S    E  S S E  E  E  S S S S S S  
-------------------------------|------------------------------|
-------------------------------|------------------------------|
-------------7--L--7-7-7-7-7-7-|---------5--7--L--7-7-7-7-7-7-|
--0--0-0-0-0-------------------|--0--0-0----------------------|


  E  S S S S E  E  S S S S S S    E  S S E  E  E  S S S S S S  
-------------------------------|------------------------------|
-------------------------------|------------7--L--7-7-7-7-7-7-|
-------------7--L--7-7-7-7-7-7-|---------5--------------------|
--0--0-0-0-0-------------------|--0--0-0----------------------|


  E  S S S S E  E  S S S S S S    E  S S E  E  E  S S S S S S  
-------------------------------|------------------------------|
-------------------------------|------------------------------|
-------------7--L--7-7-7-7-7-7-|---------5--3--L--3-3-3-3-3-3-|
--0--0-0-0-0-------------------|--0--0-0----------------------|


  S S S S S S S S S S S S S S S S    S S S S S S S S S S S S S S S S  
----------------------------------|----------------------------------|
----------------------------------|----------------------------------|
----------------------------------|----------------------------------|
--3-3-3-3-3-3-3-3-3-3-3-3-3-3-3-3-|--5-5-5-5-5-5-5-5-7-7-7-7-7-7-7-7-|


  E  S S S S E  E.  S E  E     E  S S S S E  E.  S E  S S  
----------------------------|-----------------------------|
----------------------------|----------------5---4-L--2-2-|
--7-------------7---9-L--7--|--3--3-3-L-3-3---------------|
-----0-0-L-0-0--------------|-----------------------------|


  E  S S S S E  E.  S E  S S    E  S S S S E  E  E  E  E   
-----------------------------|----------------------------|
-----------------------------|----------------------------|
----------------2---0-L--2-2-|--5--5-5-L-5-5--5--5--6--6--|
--3--3-3-L-3-3---------------|----------------------------|


  E  S S S S E  E.  S E   E     E  S S S S E  E.  S E  S S  
-----------------------------|-----------------------------|
-----------------------------|-----------------------------|
--7-------------7---9-L--10--|--3--3-3-L-3-3--3---5-L--7-7-|
-----0-0-L-0-0---------------|-----------------------------|


  E  S S S S E  E.  S E  E     E  S S S S E  H           W                 
----------------------------|-------------------------|-------------------|
----------------------------|-------------------------|-------------------|
--------------------0-L--2--|--2--2-2-L-2-2--2--------|--2----------------|
--3--3-3-L-3-3--3-----------|-------------------------|-------------------|


  S S S S S S S S S S S S S S S S    S S S S S S S S S S S S S S S S  
----------------------------------|----------------------------------|
----------------------------------|----------------------------------|
--3-3-3-3-3-3-3-3-3-3-3-3-3-3-3-3-|--3-3-3-3-3-3-3-3-3-3-3-3-3-3-5-5-|
----------------------------------|----------------------------------|


  S S S S S S S S S S S S S S S S    S S S S S S S S S S S S S S S S  
----------------------------------|----------------------------------|
----------------------------------|----------------------------------|
--7-7-7-7-7-7-7-7-7-7-7-7-7-7-7-7-|----------2-2-2-2-0-0-0-0-2-2-2-2-|
----------------------------------|--0-0-0-0-------------------------|


  S S S S S S S S S S S S S S S S    S S S S S S S S E.  S E  E   
----------------------------------|------------------------------|
----------------------------------|------------------------------|
--3-3-3-3-3-3-3-3-3-3-3-3-3-3-3-3-|--3-3-3-3-3-3-3-3-3---5-L--3--|
----------------------------------|------------------------------|


  W                   H        H             S S S S S S S S S S S S S S S S  
-------------------|--------------------||-----------------------------------|
-------------------|--------------------||*----------------------------------|
--2----------------|--3--------5--------||*----------------------------------|
-------------------|--------------------||---3-3-3-3-3-3-3-3-3-3-3-3-3-3-3-3-|


  S S S S S S S S S S S S S S S S    S S S S S S S S S S S S S S S S  
----------------------------------|----------------------------------|
----------------------------------|----------------------------------|
----------------------------------|----------------------------------|
--3-3-3-3-3-3-3-3-3-3-3-3-2-2-2-2-|--0-0-0-0-0-0-0-0-0-0-0-0-0-0-0-0-|


  S S S S S S S S S S S S S S S S    S S S S S S S S S S S S S S S S  
----------------------------------|----------------------------------|
----------------------------------|----------------------------------|
------------------7-7-7-7-5-5-5-5-|------3-3-3-3-----3-3-3-3---------|
--0-0-0-0-0-0-0-0-----------------|--3-3---------3-3---------3-3-3-3-|


  S S S S S S S S S S S S S S S S    S S S S S S S S S S S S S S S S  
----------------------------------|----------------------------------|
----------------------------------|----------------------------------|
----------------------------------|--5-5-5-5-5-5-----5-5-5-5-5-5-----|
--3-3-3-3-3-3-3-3-3-3-3-3-3-3-3-3-|--------------5-5-------------5-5-|


  S S S S S S S S Q    Q         Q    Q    Q    Q     
-----------------------------||----------------------|
----------------------------*||----------------------|
--5-5-5-5-5-5-5-5-5----6----*||--5----5----5----6----|
-----------------------------||----------------------|


  E  S S S S E  E  S S S S S S    E  S S E  E  E  S S S S S S  
-------------------------------|------------------------------|
-------------------------------|------------------------------|
-------------7--L--7-7-7-7-7-7-|---------5--7--L--7-7-7-7-7-7-|
--0--0-0-0-0-------------------|--0--0-0----------------------|


  E  S S S S E  E  S S S S S S    E  S S E  E  H         
-------------------------------|------------------------|
-------------------------------|------------7--L--------|
-------------7--L--7-7-7-7-7-7-|---------5--------------|
--0--0-0-0-0-------------------|--0--0-0----------------|


  S S S S S S S S S S S S S S S S    S S S S S S S S S S S S Q     
----------------------------------|-------------------------------|
----------------------------------|-------------------------------|
--3-3-3-3-3-3-3-3-3-3-3-3-3-3-3-3-|--5-5-5-5-5-5-5-5-6-6-6-6-6----|
----------------------------------|-------------------------------|


  E.  S E  S S E.  S E  S S E.  S E  S S E  E   
-----------------------------------------------|
--4---4----4---4---4----4---4---4----4---5--5--|
-----------------------------------------------|
-----------------------------------------------|


  E.  S E  S S E.  S E  S S E.  S E  S S E  E   
-----------------------------------------4--4--|
--4---4----4---4---4----4---4---4----4---------|
-----------------------------------------------|
-----------------------------------------------|


  E.  S E  S S E.  S E  S S E.  S E  S S E  E     E.  S E  S S E.  S E  S S  
-----------------------------------------------|----------------------------|
--4---4----4---4---4----4---4---4----4---5--5--|--4---4----4---4---4----4---|
-----------------------------------------------|----------------------------|
-----------------------------------------------|----------------------------|


  E  E  E  E  E  E  E  E     H        S E  S E  S S  
--------------------------|-------------------------|
--------------------------|---------------------6-7-|
--------------------------|-------------------------|
--3--2--0--3--2--0--3--2--|--0--------0-0--0-L------|


                    Pickslide                                              
  E  S S Q    S E.  S          S  S  S    S S S S S S S S S S S S S S S S  
---------------------------------------|----------------------------------|
--6------------------------------------|----------------------------------|
---------------------------------------|----------7---------------7---7---|
-----0-0-L----0-0---7\--------\6\-5\-4-|--0-0-0-0---0-0-0-0-0-0-0---0---0-|


  S S S S S S S S S S S S S S S S    S S S S S S S S S S S S S S S S  
----------------------------------|----------------------------------|
----------------------------------|----------------------------------|
----------7---------------7---7---|----------7---------------7---7---|
--0-0-0-0---0-0-0-0-0-0-0---0---0-|--0-0-0-0---0-0-0-0-0-0-0---0---0-|


  S S S S S S S S S S S S S S E     S S S S S S S S S S S S S S E   
---------------------------------|---------------------------------|
---------------------------------|---------------------------------|
----------7----------------------|---------------------------------|
--0-0-0-0---0-0-0-0-0-0-0-1-1-1--|--0-0-0-0-0-0-0-0-0-0-0-0-1-3-1--|


  S S S S S S S S S S S S S S E     S S S S S S S S S S S S S S E   
---------------------------------|---------------------------------|
---------------------------------|---------------------------------|
---------------------------------|---------------------------------|
--0-0-0-0-0-0-0-0-0-0-0-0-1-3-1--|--0-0-0-0-0-0-0-0-0-0-0-0-1-3-1--|


  S S S S S S S S S S S S S S E     S S S S S S S S S S S S S S S S  
---------------------------------|----------------------------------|
---------------------------------|----------------------------------|
---------------------------------|----------------------------------|
--0-0-0-0-0-0-0-0-0-0-0-0-1-3-1--|--0-0-0-0-0-0-0-0-0-0-0-0-1-1-1-1-|


  S S S S S S S S S S S S S S E     S S S S S S S S S S S S S S S S  
---------------------------------|----------------------------------|
---------------------------------|----------------------------------|
---------------------------------|----------------------------------|
--0-0-0-0-0-0-0-0-0-0-0-0-1-3-1--|--0-0-0-0-0-0-0-0-0-0-0-0-1-1-1-1-|


  S S S S S S S S S S S S S S S S    S S S S S S S S S S S S S S S S  
----------------------------------|----------------------------------|
----------------------------------|----------------------------------|
----------------------------------|----------------------------------|
--0-0-0-0-0-0-0-0-0-0-0-0-1-1-1-1-|--0-0-0-0-0-0-0-0-0-0-0-0-1-1-1-1-|


  S S S S S S S S S S S S S S S S    S S S S S S S S S S S S S S S S  
----------------------------------|----------------------------------|
----------------------------------|----------------------------------|
----------------------------------|----------------------------------|
--0-0-0-0-0-0-0-0-0-0-0-0-1-1-1-1-|--0-0-0-0-0-0-0-0-0-0-0-0-1-1-1-1-|


  S S S S S S S S S S S S S S S S    E  E  Q     
----------------------------------|-------------|
----------------------------------|-------------|
----------------------------------|-------------|
--0-0-0-0-0-0-0-0-0-0-0-0-1-1-1-1-|--0----------|


  S S S S S S S S S S S S S S S S    S S S S S S S S S S S S S S S S  
----------------------------------|----------------------------------|
----------------------------------|----------------------------------|
----------------------------------|----------------------------------|
--2-2-2-2-2-2-2-2-2-2-2-2-2-2-2-2-|--2-2-2-2-2-2-2-2-2-2-2-2-0-0-0-0-|


  S S S S S S S S S S S S S S S S    S S S S S S S S S S S S S S S S  
----------------------------------|----------------------------------|
----------------------------------|----------------------------------|
----------------------------------|----------------------------------|
--2-2-2-2-2-2-2-2-2-2-2-2-2-2-2-2-|--2-2-2-2-2-2-2-2-2-2-2-2-0-0-0-0-|


  S S S S S S S S S S S S S S S S    S S S S S S S S S S S S S S S S  
----------------------------------|----------------------------------|
----------------------------------|----------------------------------|
----------------------------------|----------------------------------|
--2-2-2-2-2-2-2-2-2-2-2-2-2-2-2-2-|--2-2-2-2-2-2-2-2-2-2-2-2-0-0-0-0-|


  S S S S S S S S S S S S S S S S    S S S S S S S S S S S S S S S S  
----------------------------------|----------------------------------|
----------------------------------|----------------------------------|
----------------------------------|----------------------------------|
--2-2-2-2-2-2-2-2-2-2-2-2-2-2-2-2-|--2-2-2-2-2-2-2-2-2-2-2-2-0-0-0-0-|


  S S S S S S S S S S S S S S S S    S S S S S S S S S S E  S S E   
----------------------------------|--------------------------------|
----------------------------------|--------------------------------|
----------------------------------|--------------------------------|
--5-5-5-5-5-5-5-5-5-5-5-5-5-5-5-5-|--5-5-5-5-5-5-5-5-5-5-5--6-6-6--|


  S S S S S S S S S S S S S S S S    S S S S S S S S S S E  S S E   
----------------------------------|--------------------------------|
----------------------------------|--------------------------------|
----------------------------------|--------------------------------|
--5-5-5-5-5-5-5-5-5-5-5-5-5-5-5-5-|--5-5-5-5-5-5-5-5-5-5-5--6-6-6--|


  S S S S S S S S S S S S S S S S    S S S S S S S S S S E  S S E   
----------------------------------|--------------------------------|
----------------------------------|--------------------------------|
----------------------------------|--------------------------------|
--5-5-5-5-5-5-5-5-5-5-5-5-5-5-5-5-|--5-5-5-5-5-5-5-5-5-5-5--6-6-6--|


  S S S S S S S S S S S S S S S S    S S S S S S S S Q    Q     
----------------------------------|----------------------------|
----------------------------------|----------------------------|
----------------------------------|----------------------------|
--5-5-5-5-5-5-5-5-5-5-5-5-5-5-5-5-|--5-5-5-5-5-5-5-5-5----0----|


  S S S S S S S S S S S S S S S S    S S S S S S S S S S S S S S S S  
----------------------------------|----------------------------------|
----------------------------------|----------------------------------|
--7-7-7-7-7-7-7-7-7-7-7-7-5-5-5-5-|--3-3-3-3-3-3-3-3-3-3-3-3-5-5-5-5-|
----------------------------------|----------------------------------|


  S S S S S S S S S S S S S S S S    S S S S S S S S S S S S S S S S  
----------------------------------|----------------------------------|
----------------------------------|------------------5-5-5-5-4-4-4-4-|
--7-7-7-7-7-7-7-7-7-7-7-7-7-7-7-7-|--5-5-5-5-5-5-5-5-----------------|
----------------------------------|----------------------------------|


  S S S S S S S S S S S S S S S S    S S S S S S S S S S S S S S S S  
----------------------------------|----------------------------------|
----------------------------------|----------------------------------|
--7-7-7-7-7-7-7-7-7-7-7-7-5-5-5-5-|--3-3-3-3-3-3-3-3-3-3-3-3-5-5-5-5-|
----------------------------------|----------------------------------|


  S S S S S S S S S S S S S S S S    S S S S S S S S S S S S S S S S  
----------------------------------|----------------------------------|
----------------------------------|------------------5-5-5-5-4-4-4-4-|
--7-7-7-7-7-7-7-7-7-7-7-7-7-7-7-7-|--5-5-5-5-5-5-5-5-----------------|
----------------------------------|----------------------------------|


  S S S S S S S S S S S S S S S S    W                   H.           Q     
----------------------------------|-------------------|--------------------|
----------------------------------|-------------------|--------------------|
--5-5-5-5-5-5-5-5-2-2-2-2-0-0-0-0-|-------------------|--------------------|
----------------------------------|--3----------------|--L------------2----|


  W                   H.           Q       W                 
-------------------|--------------------|-------------------|
-------------------|--------------------|-------------------|
-------------------|---------------5----|--3----------------|
--0----------------|--L-----------------|-------------------|


  W                   W                   S S S S S S S S E  E   Q      
-------------------|-------------------|-------------------------------|
-------------------|-------------------|-------------------------------|
-------------------|--5----------------|--5-5-5-5-5-5-5-5-5------------|
--3----------------|-------------------|------------------------10\----|


  S S S S S S S S S S S S S S S S    S S S S S S S S S S S S S S S S  
----------------------------------|----------------------------------|
----------------------------------|----------------------------------|
----------------------------------|----------------------------------|
--3-3-3-3-3-3-3-3-3-3-3-3-3-3-3-3-|--3-3-3-3-3-3-3-3-3-3-3-3-3-3-3-3-|


  S S S S S S S S S S S S S S S S    S S S S S S S S S S S S S S S S  
----------------------------------|----------------------------------|
----------------------------------|----------------------------------|
----------------------------------|------------------7-7-7-7-5-5-5-5-|
--0-0-0-0-0-0-0-0-0-0-0-0-0-0-0-0-|--0-0-0-0-0-0-0-0-----------------|


  S S S S S S S S S S S S S S S S    S S S S S S S S S S S S S S S S  
----------------------------------|----------------------------------|
----------------------------------|----------------------------------|
--3-3-3-3-3-3-3-3-3-3-3-3-3-3-3-3-|----------------------------------|
----------------------------------|--3-3-3-3-3-3-3-3-3-3-3-3-3-3-3-3-|


  S S S S S S S S S S S S S S S S    Q    Q    Q    Q     
----------------------------------|----------------------|
----------------------------------|----------------------|
--5-5-5-5-5-5-5-5-5-5-5-5-5-5-5-5-|--5----5----5----6----|
----------------------------------|----------------------|


    S S S S S S S S S S S S S S S S    S S S S S S S S S S S S S S S S  
|-----------------------------------|----------------------------------|
|*----------------------------------|----------------------------------|
|*----------------------------------|----------------------------------|
|---6-6-6-6-6-6-6-6-6-6-6-6-6-6-6-6-|--6-6-6-6-6-6-6-6-6-6-6-6-5-5-5-5-|


  S S S S S S S S S S S S S S S S    S S S S S S S S S S S S S S S S  
----------------------------------|----------------------------------|
----------------------------------|----------------------------------|
----------------------------------|--------------------------6-6-6-6-|
--3-3-3-3-3-3-3-3-3-3-3-3-3-3-3-3-|--3-3-3-3-3-3-3-3-3-3-3-3---------|


  S S S S S S S S S S S S S S S S    S S S S S S S S S S S S S S S S  
----------------------------------|----------------------------------|
----------------------------------|----------------------------------|
------6-6-6-6-----6-6-6-6---------|--1-1-1-1-1-1-1-1-1-1-1-1-3-3-5-5-|
--6-6---------6-6---------3-3-5-5-|----------------------------------|


  S S S S S S S S S S S S S S S S    Q    Q    Q    Q       
----------------------------------|-----------------------||
----------------------------------|----------------------*||
--8-8-8-8-8-8-8-8-8-8-8-8-8-8-8-8-|--8----8----8----8----*||
----------------------------------|-----------------------||


  Q    Q    Q    Q       E  S S E  E  E  S S S S S S  
----------------------|------------------------------|
----------------------|-----5-5-5--5--L--5-5-5-5-5-5-|
--8----8----8----9----|------------------------------|
----------------------|--3---------------------------|


  Q    E  E  E  S S S S S S    E  S S E  E  E  S S S S S S  
----------------------------|------------------------------|
-------3--1--L--1-1-1-1-1-1-|-----5-5-5--5--L--5-5-5-5-5-5-|
----------------------------|------------------------------|
--3-------------------------|--3---------------------------|


  Q    E  E  E  S S S S S S    E  S S E  E  E  S S S S S S  
----------------------------|------------------------------|
--5----3--------------------|-----5-5-5--5--L--5-5-5-5-5-5-|
----------3--L--3-3-3-3-3-3-|------------------------------|
----------------------------|--3---------------------------|


  Q    E  E  E  S S S S S S    S S S S S S S S S S S S S S S S  
----------------------------|----------------------------------|
-------3--1--L--1-1-1-1-1-1-|----------------------------------|
----------------------------|--1-1-1-1-1-1-1-1-1-1-1-1-1-1-1-1-|
--3-------------------------|----------------------------------|


  S S S S S S S S S S S S S S S S    E  S S E  E  E  S S S S S S  
----------------------------------|------------------------------|
----------------------------------|-----5-5-5--5--L--5-5-5-5-5-5-|
--3-3-3-3-3-3-3-3-5-5-5-5-5-5-5-5-|------------------------------|
----------------------------------|--3---------------------------|


  Q    E  E  E  S S S S S S    E  S S E  E  E  S S S S S S  
----------------------------|------------------------------|
-------3--1--L--1-1-1-1-1-1-|-----5-5-5--5--L--5-5-5-5-5-5-|
----------------------------|------------------------------|
--3-------------------------|--3---------------------------|


  Q    E  E  E  S S S S S S    E  S S E  E  E  S S S S S S  
----------------------------|------------------------------|
--5----3--------------------|-----5-5-5--5--L--5-5-5-5-5-5-|
----------3--L--3-3-3-3-3-3-|------------------------------|
----------------------------|--3---------------------------|


  E  S S E  E  E  S S S S S S    S S S S S S S S S S S S S S S S  
------------------------------|----------------------------------|
-----5-5-5--5--L--5-5-5-5-5-5-|----------------------------------|
------------------------------|--6-6-6-6-6-6-6-6-8-8-8-8-8-8-8-8-|
--3---------------------------|----------------------------------|


  S E  S E  S S S E  S E  S S    S E  S E  S S E  E  Q      
------------------------------|---------------------------||
--4----4----4---4----4----4---|--4----4----4---5--5--5----||
------------------------------|---------------------------||
------------------------------|---------------------------||




Duration Legend
---------------
W - whole
H - half
Q - quarter
E - 8th
S - 16th
T - 32nd
X - 64th
. - note dotted
|-n-|  - n-tuplets


Tablature Legend
----------------
L - tied note
x - dead note
g - grace note
(n) - ghost note
> - accentuded note
NH - natural harmonic
AH - artificial harmonic
TH - tapped harmonic
SH - semi harmonic
PH - pitch harmonic
h - hammer on
p - pull off
b - bend
br - bendRelease
pb - preBend
pbr - preBendRelease
brb - bendReleaseBend
\n/ - tremolo bar dip
\n - tremolo bar dive
-/n - tremolo bar Release up
/n\ - tremolo bar inverted dip
/n - tremolo bar return
-\n - tremolo bar Release down
S - shift slide
s - legato slide
/ -  slide into from below or out of upwards
\ -  slide into from above or out of downwards
~ - vibrato
W - wide vibrato
tr - trill
TP - tremolo picking
T - tapping
S - slap
P - pop
< - fade in
^ - brush up
v - brush down
comments
We did not receive enough feedback on this tab! Please rate:
print report bad tab
1 2 3 4 5
I want to post or [tab]
guest
You may want to rate the tab now too:
select rating
Please do not post tabs as comments. Select "correction" instead!