Oops, an error
Loading. Please wait.

Changes Tab

ver1
ver1

Whole song

Interactive

More versions @911Tabs.com
763 views 3 this week
no commentswrite comment
1 2 3 4 5
please rate
add to favorites launch autoscroll
font size
0
reset
Autoscroll
+/-
esc
set tempo
stop
WARNING: You are trying to view
                                    content from Ultimate-Guitar.com
                                    in an unauthorized application,
                                    which is prohibited.

                                    Please use an official Ultimate
                                    Guitar Tabs application for iPhone,
                                    iPad or Android to access legitimate
                                    chords, guitar, bass, and drum tabs
                                    from Ultimate-Guitar.com database.

                                    Type "ultimate guitar tabs" in Apple
                                    App Store's or Android Market's
                                    search to find the application.
Gamma Ray: Changes

The song begins with some special keyboard effects.
E |---|-------------------|----------------------|------------------|-------|
B |---|-------------------|----------------------|------------------|-------|
G |---|--H----------------|--H-------------------|--H---------------|-------|
D |---|--/\--------3------|--/\--------3--5------|--/\--------3-----|------5|
A |---|-3--5----5---------|-3--5----5-----5------|-3--5----5--------|-3-5-5-|
E |-3-|------3----------3-|------3-------------3-|------3---------3-|----3--|

E |------|--------|-------|--------|-------|--------|-------|--------|
B |-8----|--------|-------|-8----6-|-8-----|--------|-------|--------|
G |-7----|--------|-5-----|-7----5-|-7-----|--------|-5-----|--------|
D |-5----|--------|-5-----|-5----3-|-5-----|--------|-5-----|-3------|
A |------|--------|-3-----|--------|-------|--------|-3-----|-3------|
E |------|--------|-3-----|--------|-------|--------|-3-----|-1----3-|
    I Need a new...

E |------------|--------|----------|---------------|------|------|------|
B |------------|--------|----------|---------------|------|------|------|
G |--H---------|--------|----------|-------H-------|------|------|-5----|
D |-/\------3--|--------|-3--5-----|-------/\-3--sl.------|------|-5----|
A |-3-5---5----|--------|-3--5-----|------3-5---5 \|3-----|------|-3----|
E |-----3------|--------|----------|---------------|------|------|------|
   I need to grow...

E |------------|---------|-------------|-------|------|------|-------|------|
B |------------|---------|-------------|-8-----|------|------|-8---6-|-8----|
G |-8--7--5--3-|---------|--H----------|-7-----|------|-5----|-7---5-|-7----|
D |-8--7--5--3-|-3-------|--/\------3--|-5-----|------|-5----|-5---3-|-5----|
A |-6--5--3--1-|-3-------|-3-5----5----|-------|------|-3----|-------|------|
E |------------|-1-----3-|------3------|-------|------|-3----|-------|------|

                                         Maybe it's...

E |----|-------|------|---------------------|---------------------|
B |----|-------|------|---------------------|---------------------|
G |----|-5-----|------|---------------------|---------------------|
D |----|-5-----|-3----|---5---3-----------3-|---5---3-----------3-|
A |----|-3-----|-3----|-----------5---3-5---|-----------5---3-5---|
E |----|-3-----|-1----|-3---3---3---3-------|-3---3---3---3-------|

E |-----------------------|--------|---------------------|----------------|
B |------------------P-P--|--------|---------------------|---6--6-5---3---|
G |---5---4---2------/\/\-|--------|---5---4---2-----2-4-|--------------5-|
D |---------------5-5-4-2-|-3------|---------------5-----|-0---0----0-----|
A |-0---0---0---0---------|-3------|-0---0---0---0-------|----------------|
E |-----------------------|-1------|---------------------|----------------|

               Who says    We aren't guilty
E |---------|---------|----------------|--------------------|---------------|
B |---------|---------|-----sl.--------|----sl.-------------|----sl.--------|
G |-4-------|-4-------|---9 / 11-12----|---9 / 11-12--------|---9/11-12-----|
D |-4-------|-4-------|-2-9 / 11-12----|-2-9 / 11-12--------|-2-9/11-12-----|
A |-2-------|-2-------|-2-7 / 9--10--2-|-2-7 / 9--10--3-2---|-2-7/9--10--2--|
E |---------|---------|-0--------------|-0----------------3-|-0-------------|

                        Changes...
E |--------------------|------|-5----|-------------|----|-------|----------|
B |-----sl.------------|------|-5----|-------------|----|-------|----------|
G |---9 /11-12---------|-2----|-2----|---H---------|----|-------|----------|
D |-2-9 /11-12---------|-2----|-2----|--/\-----3---|----|-3-5---|-------3-sl.
A |-2-7 /9--10--3-2----|-0----|-0----|-3-5---5-----|----|-3-5---|---3-5---5\
E |-0----------------3-|------|----3-|-----3-------|----|-------|----------|


E |-----|----|------|------------|------------|-------|-------|
B |-----|----|------|------------|-9--8--6--4-|-------|-------|
G |-----|----|-5----|-8--7--5--3-|-8--7--5--3-|-3-----|-3-----|
D |-----|----|-5----|-8--7--5--3-|-6--5--3--1-|-3-----|-3-----|
A |-3---|----|-3----|-6--5--3--1-|------------|-1-----|-1-----|
E |-----|----|------|------------|------------|-------|-------|

                          P
E |--------------|-------/\-----|--------------|----sl.-----------|
B |--------5-5-6-|-6(B)--6-5----|--------------|-----/12-12-12----|
G |-7(B)---------|-----------5--|--------------|-----/12-------14-|
D |--------------|--------------|-AH---AH------|------------------|
A |--------------|--------------|-3(B)-3(B)...-|------------------|
E |--------------|--------------|--------------|-5----------------|
  |
E |--------------|--------------|--------------|------------------|
B |--------------|--------------|--------------|------------------|
G |-2------------|--------------|-2------------|-3----------------|
D |-2------------|-3------------|-2------------|-3----------------|
A |-0------------|-3------------|-0------------|-1----------------|
E |--------------|-1------------|--------------|------------------|

              H H        P  P
E |-17-------/\/\---17--/\-/\---|-22(B 1 1/2)--|-------------------|
B |--------17-18-20----20-18-17-|--------------|-10--12--13--12-10-|
G |-----19----------------------|--------------|-------------------|
D |-----------------------------|--------------|-------------------|
A |-----------------------------|--------------|-------------------|
E |-----------------------------|--------------|-------------------|
  |
E |-----------------------------|--------------|-------------------|
B |-----------------------------|--------------|-------------------|
G |-7-----------------9----10---|-9---------10-|-7----------9--10--|
D |-7-----------------9----10---|-9---------10-|-7----------9--10--|
A |-5-----------------7----8----|-7---------8--|-5----------7--8---|
E |-----------------------------|--------------|-------------------|


E |-----------------14-|---14--14--14-----------14--14-15-17-19-|
B |-9--10--10(B)-9-----|-17--15--14-----14-15-17--17------------|
G |--------------------|o------------16-------------------------|
D |--------------------|o---------------------------------------|
A |--------------------|----------------------------------------|
E |--------------------|----------------------------------------|
  |
E |--------------------|----------------------------------------|
B |--------------------|----------------------------------------|
G |-9-------------10---|o4--------------------------------------|
D |-9-------------10---|o4--------------------------------------|
A |-7-------------8----|-2--------------------------------------|
E |--------------------|----------------------------------------|


E |---19--19--19---------------------------|--------------------------------|
B |-22--20--19----19-22-20-19--19-17----17-|---17--17--17--17--17--17--17---|
G |-------------21-----------21------19----|-19--17----------19--17---------|
D |----------------------------------------|---------20--19----------20--19-|
A |----------------------------------------|--------------------------------|
E |----------------------------------------|--------------------------------|
  |
E |----------------------------------------|--------------------------------|
B |----------------------------------------|--------------------------------|
G |----------------------------------------|-2------------------------------|
D |-2--------------------------------------|-2------------------------------|
A |-2--------------------------------------|-0------------------------------|
E |-0--------------------------------------|--------------------------------|

   ______________________ ________________
  |1.                    |2.
E |----------------------|----------------------|
B |-There's a little-----|-Here's some other----|
G |-"Burst of note"-----o|-notes that I haven't-|
D |-here not------------o|-transcribe (Let go---|
A |-transcrible!---------|--your imagination!!)-| (Continue with the rhythm)
E |----------------------|----------------------|
  |                    
  |                     *The second time you play this part of the solo,
  |                     A second guitar enters and harmonies this part
  |                     I haven't transcribe this part yet.
  |
E |----------------------|----------------------|----|----|----|----|----|---|
B |----------------------|----------------------|----|----|----|----|----|---|
G |---------------------o|----------------------|-4--|----|-2--|----|----|---|
D |-4-------------------o|-4--------------------|-4--|-2--|-2--|-4--|-5--|-7-|
A |-4--------------------|-4--------------------|-2--|-2--|-0--|-4--|-5--|-7-|
E |-2--------------------|-2--------------------|----|-0--|----|-2--|-3--|-5-|

E |---------------|-----------------------|------|-------------|-----------|
B |---------------|------------------P-P--|------|-------------|--6-6-5-3--|
G |-9---9---9-----|---5---4---2-----/\/\--|------|--5-4-2--2-4-|---------5-|
D |-9---9---9-----|---------------5-5-4-2-|-3----|--------5----|-0-0---0---|
A |-7---7---7-----|-0---0---0---0---------|-3----|-0-0-0-0-----|-----------|
E |-0---0---0-----|-----------------------|-1----|-------------|-----------|
    Sigh No More!  For you..
                                                4 times
E |-----|-----|-----------------|--------------------|----|-------------|----|
B |-----|-----|-----sl.---------|----sl.-------------|----|-------------|----|
G |-4---|-4---|o---9 / 11-12----|---9 /11-12--------o|-2--|-7-6-4-6-7---|----|
D |-4---|-4---|o-2-9 / 11-12----|-2-9 /11-12--------o|-2--|-5-4-2-4-5---|-2--|
A |-2---|-2---|--2-7 / 9--10--2-|-2-7/9--10--3-2-----|-0--|-------------|-2--|
E |-----|-----|--0--------------|-0----------------3-|----|-----------0-|-0--|

                 Changes...

E |----------|----------------|----------|---------------|----------|
B |----------|-----------H----H----------|---------H-----H----------|
G |----------|----------/\---/\----------|--------/\----/\----------|
D |---9--9---|9--9---9-7-9--7-|9--9--9---|9--9--9-7-9--7-|9--9--9---|
A |---7--7---|7--7---7-7-7--7-|7--7--7---|7--7--7-7-7--7-|7--7--7---|
E |-00-00-00-|-00-------------|----00-00-|-00------------|----00-00-|


E |---------------|----------|---------------|----------|----------|---------|
B |---------H-----H----------|----------H----|----------|----------|---------|
G |---------/\---/\----------|---------/\----|o---------|----------|---------|
D |9--9--9-7-9--7-|9--9--9---|9--9--9-7-9--7-|o---------|----------|---------|
A |7--7--7-7-7--7-|7--7--7---|7--7--7-7-7--7-|----------|----------|---------|
E |-00------------|----00-00-|-00------------|-00000000-|-00000000-|-00000000|

                                              Who is the man who says...

E |----------|----------|----------|----------|---------------|----------|
B |----------|----------|----------|----------|---------H-----H----------|
G |----------|---2---2--|---2--2-2-|----------|--------/\----/\----------|
D |----------|---2---2--|---2--2-2-|---9--9---|9--9--9-7-9--7-|9--9--9---|
A |----------|-000-000--|-000-00-0-|---7--7---|7--7--7-7-7--7-|7--7--7---|
E |-00000000-|----------|----------|-00-00-00-|-00------------|----00-00-|


E |---------------|----|----|----|----|--------|---------|--------|---------|
B |---------H-----|----|----|----|----|--------|---------|--------|---------|
G |--------/\----o|-5--|----|-5--|----|--7--7--|7--7-7-7-|--7--7--|7--7-7-7-|
D |9--9--9-7-9--7o|-5--|----|-5--|----|--5--5--|5--5-5-5-|--5--5--|5--5-5-5-|
A |7--7--7-7-7--7-|-3--|----|-3--|----|--------|---------|--------|---------|
E |-00------------|----|----|----|----|00-00-00|-00------|00-00-00|-00------|

                    Oppression...

E |----|---|-----|---|-----|---|-----|---|---------------------------|
B |----|---|-8---|---|-----|---|-----|---|-------------------------H-|
G |-5--|---|-7---|---|-2---|---|-4---|---|-4-2-2------------------/\-|
D |-5--|---|-5---|---|-2---|---|-4---|---|----5--5-4-5--4-2-4--2-0-2-|
A |-3--|---|-----|---|-0---|---|-2---|---|---------------------------|
E |----|---|-----|---|-----|---|-----|---|---------------------------|
                                          *Doubled an octave higher by gtr
2.

E |--------|----------|---------|----------|---------|--------------|--------|
B |--------|----------|---------|----------|---------|--------H-----H--------|
G |--4--4--|4--6--6-6-|---------|----------|---------|-------/\----/\--------|
D |--2--2--|2--4--4-4-|---7--7--|-5--5--5--|--9--9---|9--9-9-7-9--7-|9-9--9--|
A |--------|----------|-55555555|-3333--3--|--7--7---|7--7-7-7-7--7-|7-7--7--|
E |00-00-00|-00-------|---------|----------|00-00-00-|-00-----------|---00-00|

                                                 __________ ______
                                                 |1.2.3    |4.
E |-------------|---------|------------|---------|---------|------|
B |---------H---|---------|------------|---------|---------|------|
G |--------/\---|o--4--4--|4--6---6--6-|---------|--------o|-5----|
D |9--9-9-7-9--7|o--2--2--|2--4---4--4-|---7--7--|-5--5--5o|-5----|
A |7--7-7-7-7--7|---------|------------|-55555555|-3333--3-|-3----|
E |-00----------|-00-00-00|-00---------|---------|---------|------|


E |-----------------------------|------------------
B |-----------------------------|------------------
G |-4-2---2---------------------|------------------
D |-----5----5-4-5--4-2-4--2-0--|-2---------------- Seque to Rich & Famous
A |-----------------------------|-2----------------
E |-----------------------------|-0----------------
  *Doubled again an octave higher
comments
We did not receive enough feedback on this tab! Please rate:
print report bad tab
1 2 3 4 5
I want to post or [tab]
guest
You may want to rate the tab now too:
select rating
Please do not post tabs as comments. Select "correction" instead!