Oops, an error
Loading. Please wait.

Eagle Bass Tab

ver1
ver1

Whole song

Interactive

More versions @911Tabs.com
155 views 1 this week
no commentswrite comment
1 2 3 4 5
please rate
Autoscroll
+/-
esc
set tempo
stop
Difficulty
Tuning
novice
D# G# C# F# A# D#
WARNING: You are trying to view
                                    content from Ultimate-Guitar.com
                                    in an unauthorized application,
                                    which is prohibited.

                                    Please use an official Ultimate
                                    Guitar Tabs application for iPhone,
                                    iPad or Android to access legitimate
                                    chords, guitar, bass, and drum tabs
                                    from Ultimate-Guitar.com database.

                                    Type "ultimate guitar tabs" in Apple
                                    App Store's or Android Market's
                                    search to find the application.
 Eagle                                       


                                                                       Gamma Ray
Bass - Dirk Schl├Ąchter



      Q    Q    Q    Q       W                   W                 
F#||----------------------|-------------------|-------------------|
C#||----------------------|-------------------|-------------------|
G#||----------------------|-------------------|-------------------|
D#||----------------------|-------------------|-------------------|


  W                   W                   E  E  E  E  E  E  E  E   
-------------------|-------------------|--------------------------|
-------------------|-------------------|--------------------------|
-------------------|-------------------|--5--5--5--5--5--5--5--5--|
-------------------|-------------------|--------------------------|


  E  E  E  E  E  E  E  E     E  E  E  E  E  E  E  E     E  Q    H        E   
--------------------------|--------------------------|----------------------|
--------------------------|--------------------------|----------------------|
--6--5--5--5--5--5--5--5--|--3--5--5--5--6--5--5--5--|--6--5----3--------L--|
--------------------------|--------------------------|----------------------|


  E  E  E  E  E  E  E  E     E  E  E  E  E  E  E  E   
--------------------------|--------------------------|
--------------------------|--------------------------|
--5--5--5--5--5--5--5--5--|--6--5--5--5--5--5--5--5--|
--------------------------|--------------------------|


  E  E  E  E  E  E  E  E     E  Q    H        E     E  E  E  E  E  E  E  E   
--------------------------|----------------------|--------------------------|
--------------------------|----------------------|--------------------------|
--3--5--5--5--6--5--5--5--|--6--5----3--------L--|--5--5--5--5--5--5--5--5--|
--------------------------|----------------------|--------------------------|


  E  E  E  E  E  E  E  E     E  E  E  E  E  E  E  E     E  Q    H        E   
--------------------------|--------------------------|----------------------|
--------------------------|--------------------------|----------------------|
--6--5--5--5--5--5--5--5--|--3--5--5--5--6--5--5--5--|--6--5----3--------L--|
--------------------------|--------------------------|----------------------|


  E  E  E  E  E  E  E  E     E  E  E  E  E  E  E  E   
--------------------------|--------------------------|
--------------------------|--------------------------|
--5--5--5--5--5--5--5--5--|--6--5--5--5--5--5--5--5--|
--------------------------|--------------------------|


  E  E  E  E  E  E  E  E     E  Q    Q.     E  E     E  E  E  E  E  E  E  E   
--------------------------|-----------------------|--------------------------|
--------------------------|-----------------------|--------------------------|
--3--5--5--5--6--5--5--5--|--6--5----3------3--3--|--3--5--5--5--5--5--5--5--|
--------------------------|-----------------------|--------------------------|


  E  E  E  E  E  E  E  E     E  E  E  E  E  E  E  E     E  Q    Q.     E  E   
--------------------------|--------------------------|-----------------------|
--------------------------|--------------------------|-----------------------|
--6--5--5--5--5--5--5--5--|--3--5--5--5--6--5--5--5--|--6--5----3------3--3--|
--------------------------|--------------------------|-----------------------|


  E  E  E  E  E  E  E  E     E  E  E  E  E  E  E  E   
--------------------------|--------------------------|
--------------------------|--------------------------|
--5--5--5--5--5--5--5--5--|--6--5--5--5--5--5--5--5--|
--------------------------|--------------------------|


  E  E  E  E  E  E  E  E     E  Q    Q.     E  E     E  E  E  E  E  E  E  E   
--------------------------|-----------------------|--------------------------|
--------------------------|-----------------------|--------------------------|
--3--5--5--5--6--5--5--5--|--6--5----3------3--3--|--5--5--5--5--5--5--5--5--|
--------------------------|-----------------------|--------------------------|


  E  E  E  E  E  E  E  E     E  E  E  E  E  E  E  E     E  Q    H        E   
--------------------------|--------------------------|----------------------|
--------------------------|--------------------------|----------------------|
--6--5--5--5--5--5--5--5--|--3--5--5--5--6--5--5--5--|--6--5----3--------L--|
--------------------------|--------------------------|----------------------|


  E  E  E  E  E  E  E  E     E  E  E  E  E  E  E  E   
--------------------------|--------------------------|
--------------------------|--------------------------|
--------------------------|--------------------------|
--5--5--5--5--5--5--3--3--|--5--5--5--5--5--5--3--3--|


  E  E  E  E  E  E  E  E     E  E  E  E  E  E  E  E   
--------------------------|--------------------------|
--------------------------|--------------------------|
--------------5--5--5--5--|--4--4--4--4--------------|
--5--5--5--5--------------|--------------6--6--6--6--|


  E  E  E  E  E  E  E  E     E  E  E  E  E  E  E  E   
--------------------------|--------------------------|
--------------------------|--------------------------|
--------------------------|--------------------------|
--5--5--5--5--5--5--3--3--|--5--5--5--5--5--5--3--3--|


  E  E  E  E  E  E  E  E     E  E  E  E  E  E  E  E   
--------------------------|--------------------------|
--------------------------|--------------------------|
--------------5--5--5--5--|--4--4--4--4--4--4--4--4--|
--5--5--5--5--------------|--------------------------|


  E  E  E  E  E  E  E  E     E  E  E  E  E  E  E  E   
--------------------------|--------------------------|
--------------------------|--------------------------|
--------------------------|--------------------------|
--5--5--5--5--5--5--3--3--|--5--5--5--5--5--5--3--3--|


  E  E  E  E  E  E  E  E     E  E  E  E  E  E  E  E   
--------------------------|--------------------------|
--------------------------|--------------------------|
--------------5--5--5--5--|--4--4--4--4--------------|
--5--5--5--5--------------|--------------6--6--6--6--|


  E  E  E  E  E  E  E  E     E  E  E  E  E  E  E  E   
--------------------------|--------------------------|
--------------------------|--------------------------|
--------------------------|--------------------------|
--5--5--5--5--5--5--3--3--|--5--5--5--5--5--5--3--3--|


  E  E  E  E  E  E  E  E     E  E  E  E  E  E  E  E   
--------------------------|--------------------------|
--------------------------|--------------------------|
--------------------------|--3--3--3--3--3--3--3--3--|
--5--5--5--5--6--6--6--6--|--------------------------|


  E  E  E  E  E  E  E  E     E  E  E  E  E  E  E  E   
--------------------------|--------------------------|
--------------------------|--------------------------|
--5--5--5--5--5--5--5--5--|--3--3--3--3--3--3--3--3--|
--------------------------|--------------------------|


  E  E  E  E  E  E  E  E     E  E  E  E  E  E  E  E   
--------------------------|--------------------------|
--------------------------|-----------3--2-----------|
--5--5--5--5--5--5--5--5--|--1--3--5--------5--3--3--|
--------------------------|--------------------------|


  E  E  E  E  E  E  E  E     E  E  E  E  E  E  E  E   
--------------------------|--------------------------|
--------------------------|--------------------------|
--5--5--5--5--5--5--5--5--|--3--3--3--3--3--3--3--3--|
--------------------------|--------------------------|


  E  E  E  E  E  E  E  E     E  E  E  E  E  E  E  E   
--------------------------|--------------------------|
--------------------------|--------------------------|
--8--8--8--8--8--8--8--8--|--3--3--3--3--3--3--3--3--|
--------------------------|--------------------------|


  E  E  E  E  E  E  E  E     E  E  E  E  E  E  E  E   
--------------------------|--------------------------|
--------------------------|--------------------------|
--5--5--5--5--5--5--5--5--|--3--3--3--3--3--3--3--3--|
--------------------------|--------------------------|


  E  E  E  E  E  E  E  E     E  E  E  E  E  E  E  E   
--------------------------|--------------------------|
--------------------------|-----------3--2-----------|
--5--5--5--5--5--5--5--5--|--1--3--5--------5--3--3--|
--------------------------|--------------------------|


  E  E  E  E  E  E  E  E     E  E  E  E  E  E  E  E   
--------------------------|--------------------------|
--------------------------|--------------------------|
--5--5--5--5--5--5--5--5--|--8--8--8--8--8--8--8--8--|
--------------------------|--------------------------|


  E  E  E  E  E  E  E  E     E  E  E  E  E  E  E  E   
--------------------------|--------------------------|
--------------------------|--------------------------|
--3--3--3--3--3--3--3--3--|--1--1--1--1--1--1--3--3--|
--------------------------|--------------------------|


  E  E  E  E  E  E  E  E     E  E  E  E  E  E  E  E   
--------------------------|--------------------------|
--------------------------|--------------------------|
--5--5--5--5--5--5--5--5--|--6--5--5--5--5--5--5--5--|
--------------------------|--------------------------|


  E  E  E  E  E  E  E  E     E  Q    H        E     E  E  E  E  E  E  E  E   
--------------------------|----------------------|--------------------------|
--------------------------|----------------------|--------------------------|
--3--5--5--5--6--5--5--5--|--6--5----3--------L--|--5--5--5--5--5--5--5--5--|
--------------------------|----------------------|--------------------------|


  E  E  E  E  E  E  E  E     E  E  E  E  E  E  E  E     E  Q    H        E   
--------------------------|--------------------------|----------------------|
--------------------------|--------------------------|----------------------|
--6--5--5--5--5--5--5--5--|--3--5--5--5--6--5--5--5--|--6--5----3--------L--|
--------------------------|--------------------------|----------------------|


  E  E  E  E  E  E  E  E     E  E  E  E  E  E  E  E   
--------------------------|--------------------------|
--------------------------|--------------------------|
--5--5--5--5--5--5--5--5--|--6--5--5--5--5--5--5--5--|
--------------------------|--------------------------|


  E  E  E  E  E  E  E  E     E  Q    Q.     E  E     E  E  E  E  E  E  E  E   
--------------------------|-----------------------|--------------------------|
--------------------------|-----------------------|--------------------------|
--3--5--5--5--6--5--5--5--|--6--5----3------3--3--|--3--5--5--5--5--5--5--5--|
--------------------------|-----------------------|--------------------------|


  E  E  E  E  E  E  E  E     E  E  E  E  E  E  E  E     E  Q    Q.     E  E   
--------------------------|--------------------------|-----------------------|
--------------------------|--------------------------|-----------------------|
--6--5--5--5--5--5--5--5--|--3--5--5--5--6--5--5--5--|--6--5----3------3--3--|
--------------------------|--------------------------|-----------------------|


  E  E  E  E  E  E  E  E     E  E  E  E  E  E  E  E   
--------------------------|--------------------------|
--------------------------|--------------------------|
--5--5--5--5--5--5--5--5--|--6--5--5--5--5--5--5--5--|
--------------------------|--------------------------|


  E  E  E  E  E  E  E  E     E  Q    Q.     E  E     E  E  E  E  E  E  E  E   
--------------------------|-----------------------|--------------------------|
--------------------------|-----------------------|--------------------------|
--3--5--5--5--6--5--5--5--|--6--5----3------3--3--|--5--5--5--5--5--5--5--5--|
--------------------------|-----------------------|--------------------------|


  E  E  E  E  E  E  E  E     E  E  E  E  E  E  E  E     E  Q    H        E   
--------------------------|--------------------------|----------------------|
--------------------------|--------------------------|----------------------|
--6--5--5--5--5--5--5--5--|--3--5--5--5--6--5--5--5--|--6--5----3--------L--|
--------------------------|--------------------------|----------------------|


  E  E  E  E  E  E  E  E     E  E  E  E  E  E  E  E   
--------------------------|--------------------------|
--------------------------|--------------------------|
--------------------------|--------------------------|
--5--5--5--5--5--5--3--3--|--5--5--5--5--5--5--3--3--|


  E  E  E  E  E  E  E  E     E  E  E  E  E  E  E  E   
--------------------------|--------------------------|
--------------------------|--------------------------|
--------------5--5--5--5--|--4--4--4--4--------------|
--5--5--5--5--------------|--------------6--6--6--6--|


  E  E  E  E  E  E  E  E     E  E  E  E  E  E  E  E   
--------------------------|--------------------------|
--------------------------|--------------------------|
--------------------------|--------------------------|
--5--5--5--5--5--5--3--3--|--5--5--5--5--5--5--3--3--|


  E  E  E  E  E  E  E  E     E  E  E  E  E  E  E  E   
--------------------------|--------------------------|
--------------------------|--------------------------|
--------------5--5--5--5--|--4--4--4--4--4--4--4--4--|
--5--5--5--5--------------|--------------------------|


  E  E  E  E  E  E  E  E     E  E  E  E  E  E  E  E   
--------------------------|--------------------------|
--------------------------|--------------------------|
--------------------------|--------------------------|
--5--5--5--5--5--5--3--3--|--5--5--5--5--5--5--3--3--|


  E  E  E  E  E  E  E  E     E  E  E  E  E  E  E  E   
--------------------------|--------------------------|
--------------------------|--------------------------|
--------------5--5--5--5--|--4--4--4--4--------------|
--5--5--5--5--------------|--------------6--6--6--6--|


  E  E  E  E  E  E  E  E     E  E  E  E  E  E  E  E   
--------------------------|--------------------------|
--------------------------|--------------------------|
--------------------------|--------------------------|
--5--5--5--5--5--5--3--3--|--5--5--5--5--5--5--3--3--|


  E  E  E  E  E  E  E  E     E  E  E  E  E  E  E  E   
--------------------------|--------------------------|
--------------------------|--------------------------|
--------------------------|--3--3--3--3--3--3--3--3--|
--5--5--5--5--6--6--6--6--|--------------------------|


  E  E  E  E  E  E  E  E     E  E  E  E  E  E  E  E   
--------------------------|--------------------------|
--------------------------|--------------------------|
--5--5--5--5--5--5--5--5--|--3--3--3--3--3--3--3--3--|
--------------------------|--------------------------|


  E  E  E  E  E  E  E  E     E  E  E  E  E  E  E  E   
--------------------------|--------------------------|
--------------------------|-----------3--2-----------|
--5--5--5--5--5--5--5--5--|--1--3--5--------5--3--3--|
--------------------------|--------------------------|


  E  E  E  E  E  E  E  E     E  E  E  E  E  E  E  E   
--------------------------|--------------------------|
--------------------------|--------------------------|
--5--5--5--5--5--5--5--5--|--3--3--3--3--3--3--3--3--|
--------------------------|--------------------------|


  E  E  E  E  E  E  E  E     E  E  E  E  E  E  E  E   
--------------------------|--------------------------|
--------------------------|--------------------------|
--8--8--8--8--8--8--8--8--|--3--3--3--3--3--3--3--3--|
--------------------------|--------------------------|


  E  E  E  E  E  E  E  E     E  E  E  E  E  E  E  E   
--------------------------|--------------------------|
--------------------------|--------------------------|
--5--5--5--5--5--5--5--5--|--3--3--3--3--3--3--3--3--|
--------------------------|--------------------------|


  E  E  E  E  E  E  E  E     E  E  E  E  E  E  E  E   
--------------------------|--------------------------|
--------------------------|-----------3--2-----------|
--5--5--5--5--5--5--5--5--|--1--3--5--------5--3--3--|
--------------------------|--------------------------|


  E  E  E  E  E  E  E  E     E  E  E  E  E  E  E  E   
--------------------------|--------------------------|
--------------------------|--------------------------|
--5--5--5--5--5--5--5--5--|--8--8--8--8--8--8--8--8--|
--------------------------|--------------------------|


  E  E  E  E  E  E  E  E     E  E  E  E  E  E  E  E     Q    Q    H         
--------------------------|--------------------------|---------------------|
--------------------------|--------------------------|---------------------|
--3--3--3--3--3--3--3--3--|--1--1--1--1--1--1--3--3--|--0------------------|
--------------------------|--------------------------|---------------------|


  W                   Q    Q    H           W                 
-------------------|---------------------|-------------------|
-------------------|---------------------|-------------------|
-------------------|--0------------------|-------------------|
-------------------|---------------------|-------------------|


  E  E  Q    H           W                   W                 
----------------------|-------------------|-------------------|
----------------------|-------------------|-------------------|
--0--0----------------|-------------------|--0----------------|
----------------------|-------------------|-------------------|


  W                   E  E  E  E  E  E  E  E     E  E  E  E  E  E  E  E   
-------------------|--------------------------|--------------------------|
-------------------|--------------------------|--------------------------|
-------------------|--0--0--3--0--0--5--0--0--|--7--0--0--8--0--0--5--3--|
-------------------|--------------------------|--------------------------|


  E  E  E  E  E  E  E  E     E  E  E  E  E  E  E  E   
--------------------------|--------------------------|
--------------------------|--------------------------|
--0--0--3--0--0--5--0--0--|--8--7--0--7--5--0--5--3--|
--------------------------|--------------------------|


  E  E  E  E  E  E  E  E     E  E  E  E  E  E  E  E   
--------------------------|--------------------------|
--------------------------|--------------------------|
--0--0--3--0--0--5--0--0--|--7--0--0--8--0--0--5--3--|
--------------------------|--------------------------|


  E  E  E  E  E  E  E  E     E  E  E  E  E  E  E  E   
--------------------------|--------------------------|
--------------------------|--------------------------|
--0--0--3--0--0--5--0--0--|--8--7--0--7--5--0--5--3--|
--------------------------|--------------------------|


  E  E  E  E  E  E  E  E     E  E  E  E  E  E  E  E   
--------------------------|--------------------------|
--------------------------|--------------------------|
--5--5--5--5--5--5--5--5--|--3--3--3--3--3--3--3--3--|
--------------------------|--------------------------|


  E  E  E  E  E  E  E  E     E  E  E  E  E  E  E  E   
--------------------------|--------------------------|
--------------------------|-----------3--2-----------|
--5--5--5--5--5--5--5--5--|--1--3--5--------5--3--3--|
--------------------------|--------------------------|


  E  E  E  E  E  E  E  E     E  E  E  E  E  E  E  E   
--------------------------|--------------------------|
--------------------------|--------------------------|
--5--5--5--5--5--5--5--5--|--3--3--3--3--3--3--3--3--|
--------------------------|--------------------------|


  E  E  E  E  E  E  E  E     E  E  E  E  E  E  E  E   
--------------------------|--------------------------|
--------------------------|--------------------------|
--8--8--8--8--8--8--8--8--|--3--3--3--3--3--3--3--3--|
--------------------------|--------------------------|


  E  E  E  E  E  E  E  E     E  E  E  E  E  E  E  E   
--------------------------|--------------------------|
--------------------------|--------------------------|
--5--5--5--5--5--5--5--5--|--3--3--3--3--3--3--3--3--|
--------------------------|--------------------------|


  E  E  E  E  E  E  E  E     E  E  E  E  E  E  E  E   
--------------------------|--------------------------|
--------------------------|-----------3--2-----------|
--5--5--5--5--5--5--5--5--|--1--3--5--------5--3--3--|
--------------------------|--------------------------|


  E  E  E  E  E  E  E  E     E  E  E  E  E  E  E  E   
--------------------------|--------------------------|
--------------------------|--------------------------|
--5--5--5--5--5--5--5--5--|--8--8--8--8--8--8--8--8--|
--------------------------|--------------------------|


  E  E  E  E  E  E  E  E     E  E  E  E  E  E  E  E     Q    Q    H         
--------------------------|--------------------------|---------------------|
--------------------------|--------------------------|---------------------|
--3--3--3--3--3--3--3--3--|--1--1--1--1--1--1--3--3--|--0------------------|
--------------------------|--------------------------|---------------------|


  W                   E  E  E  E  E  E  Q       W                 
-------------------|-------------------------|-------------------|
-------------------|-------------------------|-------------------|
-------------------|-----0-----0-----0-------|-------------------|
-------------------|-------------------------|-------------------|


  S S E  E  E  S S E  E  E     S S E  E  E  S S E  E  E     W                 
----------------------------|----------------------------|-------------------|
----------------------------|----------------------------|-------------------|
--0-0-0--0-----0-0-0--0-----|--0-0-0--0-----0-0-0--0-----|-------------------|
----------------------------|----------------------------|-------------------|


  W                   E  E  E  E  E  E  E  E     E  E  E  E  E  E  E  E   
-------------------|--------------------------|--------------------------|
-------------------|--------------------------|--------------------------|
-------------------|--5--5--5--5--5--5--5--5--|--6--5--5--5--5--5--5--5--|
-------------------|--------------------------|--------------------------|


  E  E  E  E  E  E  E  E     E  Q    H        E     E  E  E  E  E  E  E  E   
--------------------------|----------------------|--------------------------|
--------------------------|----------------------|--------------------------|
--3--5--5--5--6--5--5--5--|--6--5----3--------L--|--5--5--5--5--5--5--5--5--|
--------------------------|----------------------|--------------------------|


  E  E  E  E  E  E  E  E     E  E  E  E  E  E  E  E     E  Q    H        E   
--------------------------|--------------------------|----------------------|
--------------------------|--------------------------|----------------------|
--6--5--5--5--5--5--5--5--|--3--5--5--5--6--5--5--5--|--6--5----3--------L--|
--------------------------|--------------------------|----------------------|


  E  E  E  E  E  E  E  E     E  E  E  E  E  E  E  E   
--------------------------|--------------------------|
--------------------------|--------------------------|
--5--5--5--5--5--5--5--5--|--5--5--5--5--5--5--5--5--|
--------------------------|--------------------------|


  E  E  E  E  E  E  E  E     E  E  E  E  E  E  E  E   
--------------------------|--------------------------|
--------------------------|--------------------------|
--5--5--5--5--5--5--5--5--|--3--3--3--3--3--3--3--3--|
--------------------------|--------------------------|


  E  E  E  E  E  E  E  E     E  E  E  E  E  E  E  E   
--------------------------|--------------------------|
--------------------------|--------------------------|
--5--5--5--5--5--5--5--5--|--5--5--5--5--5--5--5--5--|
--------------------------|--------------------------|


  E  E  E  E  E  E  E  E     E  E  E  E  E  E  E  E   
--------------------------|--------------------------|
--------------------------|--------------------------|
--5--5--5--5--5--5--5--5--|--3--3--3--3--3--3--3--3--|
--------------------------|--------------------------|


  E.  S S S S S E.  S S S S S    E.  S S S S S E.  S S S S S  
------------------------------|------------------------------|
------------------------------|------------------------------|
--7---7-7-7-7-7-7---7-7-7-7-7-|--7---7-7-7-7-7-7---7-7-7-7-7-|
------------------------------|------------------------------|


  S S S S S S S S S S S S S S S S    S S S S S S S S S S S S S S S S  
----------------------------------|----------------------------------|
----------------------------------|----------------------------------|
--7-7-7-7-5-5-5-5-3-3-3-3-2-2-2-2-|--5-5-5-5-3-3-3-3-2-2-2-2-0-0-0-0-|
----------------------------------|----------------------------------|


                                               |----3----|     
  E.  S S S S S E.  S S S S S    E.  S S S S S Q    Q    Q     
------------------------------|-------------------------------|
------------------------------|-------------------------------|
--5---5-5-5-5-5-5---5-5-5-5-5-|--5---5-5-5-5-5-6----6----6----|
------------------------------|-------------------------------|


  E.  S S S S S E.  S S S S S    S S S S S S S S S S S S S S S S  
------------------------------|----------------------------------|
------------------------------|----------------------------------|
--5---5-5-5-5-5-5---5-5-5-5-5-|--5-5-5-5-7-7-7-7-9-9-9-9-5-5-5-5-|
------------------------------|----------------------------------|


  E.  S S S S S E.  S S S S S    E.  S S S S S E.  S S S S S  
------------------------------|------------------------------|
------------------------------|------------------------------|
--7---7-7-7-7-7-7---7-7-7-7-7-|--7---7-7-7-7-7-7---7-7-7-7-7-|
------------------------------|------------------------------|


  S S S S S S S S S S S S S S S S    S S S S S S S S S S S S S S S S  
----------------------------------|----------------------------------|
----------------------------------|----------------------------------|
--7-7-7-7-5-5-5-5-3-3-3-3-2-2-2-2-|--5-5-5-5-3-3-3-3-2-2-2-2-0-0-0-0-|
----------------------------------|----------------------------------|


                                               |----3----|     
  E.  S S S S S E.  S S S S S    E.  S S S S S Q    Q    Q     
------------------------------|-------------------------------|
------------------------------|-------------------------------|
--5---5-5-5-5-5-5---5-5-5-5-5-|--5---5-5-5-5-5-6----6----6----|
------------------------------|-------------------------------|


  E.  S S S S S E.  S S S S S    S S S S S S S S S S S S S S S S  
------------------------------|----------------------------------|
------------------------------|----------------------------------|
--5---5-5-5-5-5-5---5-5-5-5-5-|--5-5-5-5-7-7-7-7-9-9-9-9-5-5-5-5-|
------------------------------|----------------------------------|


  E.  S S S S S E.  S S S S S    E.  S S S S S E.  S S S S S  
------------------------------|------------------------------|
------------------------------|------------------------------|
--7---7-7-7-7-7-7---7-7-7-7-7-|--7---7-7-7-7-7-7---7-7-7-7-7-|
------------------------------|------------------------------|


  Q    Q    Q    Q       Q    Q    Q    Q       Q    Q    Q    Q     
----------------------|----------------------|----------------------|
----------------------|----------------------|----------------------|
--7----7----7----7----|--7----7----7----7----|--7----7----7----7----|
----------------------|----------------------|----------------------|


                         |----3----|    |----3----|     
  Q    Q    Q    Q       Q    Q    Q    Q    Q    Q     
----------------------|--------------------------------|
----------------------|-----------------4----4----4----|
--7----7----7----7----|--5----5----5-------------------|
----------------------|--------------------------------|


  |----3----|    |----3----|       |----3----|    |----3----|     
  Q    Q    Q    Q    Q    Q       Q    Q    Q    Q    Q    Q     
--------------------------------|--------------------------------|
-----------------7----7----7----|-----------------4----4----4----|
--5----5----5-------------------|--5----5----5-------------------|
--------------------------------|--------------------------------|


  |----3----|    |----3----|                                                   
  Q    Q    Q    Q    Q    Q       Q    Q    Q    Q       Q    Q    Q    Q     
--------------------------------|----------------------|----------------------|
-----------------7----7----7----|----------------------|----------------------|
--5----5----5-------------------|--7----7----7----7----|--7----7----7----7----|
--------------------------------|----------------------|----------------------|


                                                |----3----|    |----3----|     
  Q    Q    Q    Q       Q    Q    Q    Q       Q    Q    Q    Q    Q    Q     
----------------------|----------------------|--------------------------------|
----------------------|----------------------|-----------------4----4----4----|
--7----7----7----7----|--7----7----7----7----|--5----5----5-------------------|
----------------------|----------------------|--------------------------------|


  |----3----|    |----3----|       |----3----|    |----3----|     
  Q    Q    Q    Q    Q    Q       Q    Q    Q    Q    Q    Q     
--------------------------------|--------------------------------|
-----------------7----7----7----|-----------------4----4----4----|
--5----5----5-------------------|--5----5----5-------------------|
--------------------------------|--------------------------------|


  |----3----|    |----3----|                                                   
  Q    Q    Q    Q    Q    Q       Q    Q    Q    Q       Q    Q    Q    Q     
--------------------------------|----------------------|----------------------|
-----------------7----7----7----|----------------------|----------------------|
--5----5----5-------------------|--2----0--------------|--2----0--------------|
--------------------------------|------------3----2----|------------3----2----|


  Q    Q    Q    Q       Q    Q    Q    Q       H        Q.     E   
----------------------|----------------------|---------------------|
----------------------|----------------------|---------------------|
--5----2----0---------|--7----2----0---------|--3--------3---------|
-----------------3----|-----------------3----|------------------3--|


  Q    Q    Q    Q       H        H           Q    Q    E  E  Q     
----------------------|--------------------|-----------------------|
----------------------|--------------------|--2----2----2--0-------|
--3----3----3----2----|-----------2--------|------------------2----|
----------------------|--0-----------------|-----------------------|


  H        Q.     E     Q    Q    Q    Q       H        H         
---------------------|----------------------|--------------------|
---------------------|----------------------|-----------2--------|
--3--------3---------|--3----3----3----2----|--------------------|
------------------3--|----------------------|--0-----------------|


  Q    Q    Q    Q       E  E  E  E  E  E  E  E     E  E  E  E  E  E  E  E   
----------------------|--------------------------|--------------------------|
--2----2----0---------|--------------------------|--------------------------|
-----------------2----|--3--3--3--3--3--3--3--3--|--3--3--3--3--3--3--3--3--|
----------------------|--------------------------|--------------------------|


  E  E  E  E  E  E  E  E     E  E  E  E  E  E  E  E   
--------------------------|--------------------------|
--------------------------|--------------------------|
--7--7--7--7--7--7--7--7--|--7--7--7--7--7--7--7--7--|
--------------------------|--------------------------|


  E  E  E  E  E  E  E  E     E  E  E  E  E  E  E  E   
--------------------------|--------------------------|
--------------------------|--------------------------|
--3--3--3--3--3--3--3--3--|--3--3--3--3--3--3--3--3--|
--------------------------|--------------------------|


  E  E  E  E  E  E  E  E     E  E  E  E  E  E  E  E   
--------------------------|--------------------------|
--------------------------|--------------------------|
--5--5--5--5--5--5--5--5--|--5--5--5--5--5--5--5--5--|
--------------------------|--------------------------|


  E  E  E  E  E  E  E  E     E  E  E  E  E  E  E  E   
--------------------------|--------------------------|
--------------------------|--------------------------|
--7--7--7--7--7--7--7--7--|--5--5--5--5--5--5--5--5--|
--------------------------|--------------------------|


  E  E  E  E  E  E  E  E     E  E  E  E  E  E  Q       E  E  E  E  E  E  E  E   
--------------------------|-------------------------|--------------------------|
--------------------------|-----------5--4----------|--------------------------|
--7--7--7--7--7--7--7--7--|--3--5--7--------7--5----|--7--7--7--7--7--7--7--7--|
--------------------------|-------------------------|--------------------------|


  E  E  E  E  E  E  E  E     E  E  E  E  E  E  E  E   
--------------------------|--------------------------|
--------------------------|--5--5--5--5--5--5--5--5--|
--5--5--5--5--5--5--5--5--|--------------------------|
--------------------------|--------------------------|


  E  E  E  E  E  E  E  E     E  E  E  E  E  E  E  E   
--------------------------|--------------------------|
--------------------------|--------------------------|
--5--5--5--5--5--5--5--5--|--7--7--7--7--7--7--7--7--|
--------------------------|--------------------------|


  E  E  E  E  E  E  E  E     E  E  E  E  E  E  E  E     E  E  E  E  E  E  Q     
--------------------------|--------------------------|-------------------------|
--------------------------|--------------------------|-----------5--4----------|
--5--5--5--5--5--5--5--5--|--7--7--7--7--7--7--7--7--|--3--5--7--------7--5----|
--------------------------|--------------------------|-------------------------|


  E  E  E  E  E  E  E  E     E  E  E  E  E  E  E  E   
--------------------------|--------------------------|
--------------------------|--5--5--5--5--5--5--5--5--|
--7--7--7--7--7--7--7--7--|--------------------------|
--------------------------|--------------------------|


  E  E  E  E  E  E  E  E     E  E  E  E  E  E  E  E   
--------------------------|--------------------------|
--------------------------|--------------------------|
--5--5--5--5--5--5--5--5--|--3--3--3--3--3--3--5--5--|
--------------------------|--------------------------|


  E  E  E  E  E  E  E  E     E  E  E  E  E  E  E  E   
--------------------------|--------------------------|
--------------------------|--------------------------|
--7--7--7--7--7--7--7--7--|--7--7--7--7--7--7--7--7--|
--------------------------|--------------------------|


  E  E  E  E  E  E  E  E     E  E  E  E  E  E  E  E   
--------------------------|--------------------------|
--------------------------|--------------------------|
--------------------------|--7--5-----5--3-----3--2--|
--0--0--0--0--0--0--0--0--|--------0--------0--------|


  E  E  E  E  E  E  E  E     E  E  E  E  E  E  E  E   
--------------------------|--------------------------|
--------------------------|--------------------------|
--------------------------|--------------------------|
--0--0--0--0--0--0--0--0--|--0--0--0--0--0--0--0--0--|


  E  E  E  E  E  E  E  E     E  E  E  E  E  E  E  E   
--------------------------|--------------------------|
--------------------------|--------------------------|
--------------------------|--------------------------|
--0--0--3--0--0--5--0--0--|--7--0--0--5--0--0--3--0--|


  E  E  E  E  E  E  E  E     E  E  E  E  E  E  E  E   
--------------------------|--------------------------|
--------------------------|--------------------------|
--------------------------|--------------------------|
--0--0--3--0--0--5--0--0--|--7--0--0--8--0--0--5--3--|


  E  E  E  E  E  E  E  E     E  E  E  E  E  E  E  E   
--------------------------|--------------------------|
--------------------------|--------------------------|
--------------------------|--------------------------|
--0--0--3--0--0--5--0--0--|--8--7--0--7--0--0--7--0--|


  E  E  E  E  E  E  E  E     Q    Q    H           W                 
--------------------------|---------------------|-------------------|
--------------------------|---------------------|-------------------|
--------------------------|---------------------|-------------------|
--5--3--0--3--2--0--2--0--|--0------------------|-------------------|


  W                   W                   W                  
-------------------|-------------------|-------------------||
-------------------|-------------------|-------------------||
-------------------|-------------------|-------------------||
-------------------|-------------------|-------------------||




Duration Legend
---------------
W - whole
H - half
Q - quarter
E - 8th
S - 16th
T - 32nd
X - 64th
. - note dotted
|-n-|  - n-tuplets


Tablature Legend
----------------
L - tied note
x - dead note
g - grace note
(n) - ghost note
> - accentuded note
NH - natural harmonic
AH - artificial harmonic
TH - tapped harmonic
SH - semi harmonic
PH - pitch harmonic
h - hammer on
p - pull off
b - bend
br - bendRelease
pb - preBend
pbr - preBendRelease
brb - bendReleaseBend
\n/ - tremolo bar dip
\n - tremolo bar dive
-/n - tremolo bar Release up
/n\ - tremolo bar inverted dip
/n - tremolo bar return
-\n - tremolo bar Release down
S - shift slide
s - legato slide
/ -  slide into from below or out of upwards
\ -  slide into from above or out of downwards
~ - vibrato
W - wide vibrato
tr - trill
TP - tremolo picking
T - tapping
S - slap
P - pop
< - fade in
^ - brush up
v - brush down
comments
We did not receive enough feedback on this tab! Please rate:
print report bad tab
1 2 3 4 5
I want to post or [tab]
guest
You may want to rate the tab now too:
select rating
Please do not post tabs as comments. Select "correction" instead!