Oops, an error
Loading. Please wait.

Eagle Tab

ver1
ver1

Whole song

Interactive

More versions @911Tabs.com
607 views 1 this week
no commentswrite comment
1 2 3 4 5
please rate
Autoscroll
+/-
esc
set tempo
stop
Difficulty
Tuning
intermediate
D# G# C# F# A# D#
NEW! There's an official Ultimate Guitar app which is ideal
for learning songs when you're away from computer. Get the app
WARNING: You are trying to view
                                    content from Ultimate-Guitar.com
                                    in an unauthorized application,
                                    which is prohibited.

                                    Please use an official Ultimate
                                    Guitar Tabs application for iPhone,
                                    iPad or Android to access legitimate
                                    chords, guitar, bass, and drum tabs
                                    from Ultimate-Guitar.com database.

                                    Type "ultimate guitar tabs" in Apple
                                    App Store's or Android Market's
                                    search to find the application.
                                    Eagle                                       


                                                                       Gamma Ray
Guitar - Kai Hansen



      Q    Q    Q    Q       E  E  E  E  E  E  E  E   
D#||----------------------|--------------------------|
A#||----------------------|--------------------------|
F#||----------------------|--------------------------|
C#||----------------------|--------------7-----------|
G#||----------------------|--5--5--5--5--5--5--5--5--|
D#||----------------------|--------------------------|


  E   E  E  E  E  E  E   E     E   E  E  E  E  E  E  E   
----------------------------|---------------------------|
----------------------------|---------------------------|
----------------------------|---------------------------|
--8S--7-----5--------3S--5--|--5S--7--------7-----7-----|
--6S--5--5--3--5--5--1S--3--|--3S--5--5--5--5--5--5--5--|
----------------------------|---------------------------|


  E   Q    H        E     E  E  E  E  E  E  E  E     E   E  E  E  E  E  E   E   
-----------------------|--------------------------|----------------------------|
-----------------------|--------------------------|----------------------------|
-----------------------|--------------------------|----------------------------|
--8S--7----5--------L--|--------------7-----------|--8S--7-----5--------3S--5--|
--6S--5----3--------L--|--5--5--5--5--5--5--5--5--|--6S--5--5--3--5--5--1S--3--|
-----------------------|--------------------------|----------------------------|


  E   E  E  E  E  E  E  E     E   Q    H        E     E  E  E  E  E  E  E  E   
---------------------------|-----------------------|--------------------------|
---------------------------|-----------------------|--------------------------|
---------------------------|-----------------------|--------------------------|
--5S--7--------7-----7-----|--8S--7----5--------L--|--------------7-----------|
--3S--5--5--5--5--5--5--5--|--6S--5----3--------L--|--5--5--5--5--5--5--5--5--|
---------------------------|-----------------------|--------------------------|


  E   E  E  E  E  E  E   E     E   E  E  E  E  E  E  E   
----------------------------|---------------------------|
----------------------------|---------------------------|
----------------------------|---------------------------|
--8S--7-----5--------3S--5--|--5S--7--------7-----7-----|
--6S--5--5--3--5--5--1S--3--|--3S--5--5--5--5--5--5--5--|
----------------------------|---------------------------|


  E   Q    H        E     E  E  E  E  E  E  E  E     E   E  E  E  E  E  E   E   
-----------------------|--------------------------|----------------------------|
-----------------------|--------------------------|----------------------------|
-----------------------|--------------------------|----------------------------|
--8S--7----5--------L--|--------------7-----------|--8S--7-----5--------3S--5--|
--6S--5----3--------L--|--5--5--5--5--5--5--5--5--|--6S--5--5--3--5--5--1S--3--|
-----------------------|--------------------------|----------------------------|


  E   E  E  E  E  E  E  E     E   Q    H        E     W                 
---------------------------|-----------------------|-------------------|
---------------------------|-----------------------|-------------------|
---------------------------|-----------------------|-------------------|
--5S--7--------7-----7-----|--8S--7----5--------L--|-------------------|
--3S--5--5--5--5--5--5--5--|--6S--5----3--------L--|-------------------|
---------------------------|-----------------------|-------------------|


  W                   W                   W                   W                 
-------------------|-------------------|-------------------|-------------------|
-------------------|-------------------|-------------------|-------------------|
-------------------|-------------------|-------------------|-------------------|
-------------------|-------------------|-------------------|-------------------|
-------------------|-------------------|-------------------|-------------------|
-------------------|-------------------|-------------------|-------------------|


  W                   W                   W                 
-------------------|-------------------|-------------------|
-------------------|-------------------|-------------------|
-------------------|-------------------|-------------------|
-------------------|-------------------|-------------------|
-------------------|-------------------|-------------------|
-------------------|-------------------|-------------------|


  E  E  E  E  E  E  E  E     E   E  E  E  E  E  E   E   
--------------------------|----------------------------|
--------------------------|----------------------------|
--------------------------|----------------------------|
--------------7-----------|--8S--7-----5--------3S--5--|
--5--5--5--5--5--5--5--5--|--6S--5--5--3--5--5--1S--3--|
--------------------------|----------------------------|


  E   E  E  E  E  E  E  E     E   Q    H        E     E  E  E  E  E  E  E  E   
---------------------------|-----------------------|--------------------------|
---------------------------|-----------------------|--------------------------|
---------------------------|-----------------------|--------------------------|
--5S--7--------7-----7-----|--8S--7----5--------L--|--------------7-----------|
--3S--5--5--5--5--5--5--5--|--6S--5----3--------L--|--5--5--5--5--5--5--5--5--|
---------------------------|-----------------------|--------------------------|


  E   E  E  E  E  E  E   E     E   E  E  E  E  E  E  E   
----------------------------|---------------------------|
----------------------------|---------------------------|
----------------------------|---------------------------|
--8S--7-----5--------3S--5--|--5S--7--------7-----7-----|
--6S--5--5--3--5--5--1S--3--|--3S--5--5--5--5--5--5--5--|
----------------------------|---------------------------|


  E   Q    H        E     H.           Q       H.           Q     
-----------------------|--------------------|--------------------|
-----------------------|--------------------|--------------------|
-----------------------|--------------------|--------------------|
--8S--7----5--------L--|--7------------5----|--7------------5----|
--6S--5----3--------L--|--7------------5----|--7------------5----|
-----------------------|--5------------3----|--5------------3----|


  H        H           H        H           H.           Q     
--------------------|--------------------|--------------------|
--------------------|--------------------|--------------------|
-----------7--------|--6-----------------|--------------------|
--7--------7--------|--6--------8--------|--7------------5----|
--7--------5--------|--4--------8--------|--7------------5----|
--5-----------------|-----------6--------|--5------------3----|


  H.           Q       H        H           W                 
--------------------|--------------------|-------------------|
--------------------|--------------------|-------------------|
--------------------|-----------7--------|--6----------------|
--7------------5----|--7--------7--------|--6----------------|
--7------------5----|--7--------5--------|--4----------------|
--5------------3----|--5-----------------|-------------------|


  H.           Q       H.           Q       H        H         
--------------------|--------------------|--------------------|
--------------------|--------------------|--------------------|
--------------------|--------------------|-----------7--------|
--7------------5----|--7------------5----|--7--------7--------|
--7------------5----|--7------------5----|--7--------5--------|
--5------------3----|--5------------3----|--5-----------------|


  H        H           H.           Q       H.           Q     
--------------------|--------------------|--------------------|
--------------------|--------------------|--------------------|
--6-----------------|--------------------|--------------------|
--6--------8--------|--7------------5----|--7------------5----|
--4--------8--------|--7------------5----|--7------------5----|
-----------6--------|--5------------3----|--5------------3----|


  H        H           W                   W                 
--------------------|-------------------|-------------------|
--------------------|-------------------|-------------------|
--------------------|--5----------------|--7----------------|
--7--------8--------|--5----------------|--7----------------|
--7--------8--------|--3----------------|--5----------------|
--5--------6--------|-------------------|-------------------|


  W                   W                   E  E  E  E  E  E  Q     
-------------------|-------------------|-------------------------|
-------------------|-------------------|-------------------------|
--5----------------|--7----------------|-------------------------|
--5----------------|--7----------------|-----------3--2----------|
--3----------------|--5----------------|--1--3--5--------5--3----|
-------------------|-------------------|-------------------------|


  W                   W                    W                 
-------------------|-------------------|--------------------|
-------------------|-------------------|--------------------|
--7----------------|--5----------------|--10----------------|
--7----------------|--5----------------|--10----------------|
--5----------------|--3----------------|---8----------------|
-------------------|-------------------|--------------------|


  W                   W                   W                   W                 
-------------------|-------------------|-------------------|-------------------|
-------------------|-------------------|-------------------|-------------------|
--5----------------|--7----------------|--5----------------|--7----------------|
--5----------------|--7----------------|--5----------------|--7----------------|
--3----------------|--5----------------|--3----------------|--5----------------|
-------------------|-------------------|-------------------|-------------------|


  E  E  E  E  E  E  Q       W                    W                 
-------------------------|-------------------|--------------------|
-------------------------|-------------------|--------------------|
-------------------------|--7----------------|--10----------------|
-----------3--2----------|--7----------------|--10----------------|
--1--3--5--------5--3----|--5----------------|---8----------------|
-------------------------|-------------------|--------------------|


  W                   H.           Q       E  E  E  E  E  E  E  E   
-------------------|--------------------|--------------------------|
-------------------|--------------------|--------------------------|
--5----------------|--3------------5----|--------------------------|
--5----------------|--3------------5----|--------------7-----------|
--3----------------|--1------------3----|--5--5--5--5--5--5--5--5--|
-------------------|--------------------|--------------------------|


  E   E  E  E  E  E  E   E     E   E  E  E  E  E  E  E   
----------------------------|---------------------------|
----------------------------|---------------------------|
----------------------------|---------------------------|
--8S--7-----5--------3S--5--|--5S--7--------7-----7-----|
--6S--5--5--3--5--5--1S--3--|--3S--5--5--5--5--5--5--5--|
----------------------------|---------------------------|


  E   Q    H        E     E  E  E  E  E  E  E  E     E   E  E  E  E  E  E   E   
-----------------------|--------------------------|----------------------------|
-----------------------|--------------------------|----------------------------|
-----------------------|--------------------------|----------------------------|
--8S--7----5--------L--|--------------7-----------|--8S--7-----5--------3S--5--|
--6S--5----3--------L--|--5--5--5--5--5--5--5--5--|--6S--5--5--3--5--5--1S--3--|
-----------------------|--------------------------|----------------------------|


  E   E  E  E  E  E  E  E     E   Q    H        E     W                 
---------------------------|-----------------------|-------------------|
---------------------------|-----------------------|-------------------|
---------------------------|-----------------------|-------------------|
--5S--7--------7-----7-----|--8S--7----5--------L--|-------------------|
--3S--5--5--5--5--5--5--5--|--6S--5----3--------L--|-------------------|
---------------------------|-----------------------|-------------------|


  W                   W                   W                   W                 
-------------------|-------------------|-------------------|-------------------|
-------------------|-------------------|-------------------|-------------------|
-------------------|-------------------|-------------------|-------------------|
-------------------|-------------------|-------------------|-------------------|
-------------------|-------------------|-------------------|-------------------|
-------------------|-------------------|-------------------|-------------------|


  W                   W                   W                 
-------------------|-------------------|-------------------|
-------------------|-------------------|-------------------|
-------------------|-------------------|-------------------|
-------------------|-------------------|-------------------|
-------------------|-------------------|-------------------|
-------------------|-------------------|-------------------|


  E  E  E  E  E  E  E  E     E   E  E  E  E  E  E   E   
--------------------------|----------------------------|
--------------------------|----------------------------|
--------------------------|----------------------------|
--------------7-----------|--8S--7-----5--------3S--5--|
--5--5--5--5--5--5--5--5--|--6S--5--5--3--5--5--1S--3--|
--------------------------|----------------------------|


  E   E  E  E  E  E  E  E     E   Q    H        E     E  E  E  E  E  E  E  E   
---------------------------|-----------------------|--------------------------|
---------------------------|-----------------------|--------------------------|
---------------------------|-----------------------|--------------------------|
--5S--7--------7-----7-----|--8S--7----5--------L--|--------------7-----------|
--3S--5--5--5--5--5--5--5--|--6S--5----3--------L--|--5--5--5--5--5--5--5--5--|
---------------------------|-----------------------|--------------------------|


  E   E  E  E  E  E  E   E     E   E  E  E  E  E  E  E   
----------------------------|---------------------------|
----------------------------|---------------------------|
----------------------------|---------------------------|
--8S--7-----5--------3S--5--|--5S--7--------7-----7-----|
--6S--5--5--3--5--5--1S--3--|--3S--5--5--5--5--5--5--5--|
----------------------------|---------------------------|


  E   Q    H        E     H.           Q       H.           Q     
-----------------------|--------------------|--------------------|
-----------------------|--------------------|--------------------|
-----------------------|--------------------|--------------------|
--8S--7----5--------L--|--7------------5----|--7------------5----|
--6S--5----3--------L--|--7------------5----|--7------------5----|
-----------------------|--5------------3----|--5------------3----|


  H        H           H        H           H.           Q     
--------------------|--------------------|--------------------|
--------------------|--------------------|--------------------|
-----------7--------|--6-----------------|--------------------|
--7--------7--------|--6--------8--------|--7------------5----|
--7--------5--------|--4--------8--------|--7------------5----|
--5-----------------|-----------6--------|--5------------3----|


  H.           Q       H        H           W                 
--------------------|--------------------|-------------------|
--------------------|--------------------|-------------------|
--------------------|-----------7--------|--6----------------|
--7------------5----|--7--------7--------|--6----------------|
--7------------5----|--7--------5--------|--4----------------|
--5------------3----|--5-----------------|-------------------|


  H.           Q       H.           Q       H        H         
--------------------|--------------------|--------------------|
--------------------|--------------------|--------------------|
--------------------|--------------------|-----------7--------|
--7------------5----|--7------------5----|--7--------7--------|
--7------------5----|--7------------5----|--7--------5--------|
--5------------3----|--5------------3----|--5-----------------|


  H        H           H.           Q       H.           Q     
--------------------|--------------------|--------------------|
--------------------|--------------------|--------------------|
--6-----------------|--------------------|--------------------|
--6--------8--------|--7------------5----|--7------------5----|
--4--------8--------|--7------------5----|--7------------5----|
-----------6--------|--5------------3----|--5------------3----|


  H        H           W                   W                 
--------------------|-------------------|-------------------|
--------------------|-------------------|-------------------|
--------------------|--5----------------|--7----------------|
--7--------8--------|--5----------------|--7----------------|
--7--------8--------|--3----------------|--5----------------|
--5--------6--------|-------------------|-------------------|


  W                   W                   E  E  E  E  E  E  Q     
-------------------|-------------------|-------------------------|
-------------------|-------------------|-------------------------|
--5----------------|--7----------------|-------------------------|
--5----------------|--7----------------|-----------3--2----------|
--3----------------|--5----------------|--1--3--5--------5--3----|
-------------------|-------------------|-------------------------|


  W                   W                    W                 
-------------------|-------------------|--------------------|
-------------------|-------------------|--------------------|
--7----------------|--5----------------|--10----------------|
--7----------------|--5----------------|--10----------------|
--5----------------|--3----------------|---8----------------|
-------------------|-------------------|--------------------|


  W                   W                   W                   W                 
-------------------|-------------------|-------------------|-------------------|
-------------------|-------------------|-------------------|-------------------|
--5----------------|--7----------------|--5----------------|--7----------------|
--5----------------|--7----------------|--5----------------|--7----------------|
--3----------------|--5----------------|--3----------------|--5----------------|
-------------------|-------------------|-------------------|-------------------|


  E  E  E  E  E  E  Q       W                    W                 
-------------------------|-------------------|--------------------|
-------------------------|-------------------|--------------------|
-------------------------|--7----------------|--10----------------|
-----------3--2----------|--7----------------|--10----------------|
--1--3--5--------5--3----|--5----------------|---8----------------|
-------------------------|-------------------|--------------------|


  W                   H.           Q       E  E  E  E  E  E  E  E   
-------------------|--------------------|--------------------------|
-------------------|--------------------|--------------------------|
--5----------------|--3------------5----|--------------------------|
--5----------------|--3------------5----|--------------------------|
--3----------------|--1------------3----|--0--0--3--0--0--5--0--0--|
-------------------|--------------------|--------------------------|


  E  E  E  E  E  E  E  E     E  E  E  E  E  E  E  E   
--------------------------|--------------------------|
--------------------------|--------------------------|
--------------------------|--------------------------|
--------------------------|--------------------------|
--7--0--0--8--0--0--5--3--|--0--0--3--0--0--5--0--0--|
--------------------------|--------------------------|


  E  E  E  E  E  E  E  E     E  E  E  E  E  E  E  E   
--------------------------|--------------------------|
--------------------------|--------------------------|
--------------------------|--------------------------|
--------------------------|--------------------------|
--8--7--0--7--5--0--5--3--|--0--0--3--0--0--5--0--0--|
--------------------------|--------------------------|


  E  E  E  E  E  E  E  E     W                   W                 
--------------------------|-------------------|-------------------|
--------------------------|-------------------|-------------------|
--------------------------|--2----------------|--L----------------|
--------------------------|--2----------------|--L----------------|
--7--0--0--8--0--0--5--3--|--0----------------|--L----------------|
--------------------------|-------------------|-------------------|


  E  E  E  E  E  E  E  E     E  E  E  E  E  E  E  E   
--------------------------|--------------------------|
--------------------------|--------------------------|
--------------------------|--------------------------|
--------------------------|--------------------------|
--0--0--3--0--0--5--0--0--|--7--0--0--8--0--0--5--3--|
--------------------------|--------------------------|


  E  E  E  E  E  E  E  E     E  E  E  E  E  E  E  E   
--------------------------|--------------------------|
--------------------------|--------------------------|
--------------------------|--------------------------|
--------------------------|--------------------------|
--0--0--3--0--0--5--0--0--|--8--7--0--7--5--0--5--3--|
--------------------------|--------------------------|


  E  E  E  E  E  E  E  E     E  E  E  E  E  E  E  E   
--------------------------|--------------------------|
--------------------------|--------------------------|
--------------------------|--------------------------|
--------------------------|--------------------------|
--0--0--3--0--0--5--0--0--|--7--0--0--8--0--0--5--3--|
--------------------------|--------------------------|


  E  E  E  E  E  E  E  E     E  E  E  E  E  E  E  E     W                 
--------------------------|--------------------------|-------------------|
--------------------------|--------------------------|-------------------|
--------------------------|--------------------------|--7----------------|
--------------------------|--------------------------|--7----------------|
--0--0--3--0--0--5--0--0--|--8--7--0--7--5--0--5--3--|--5----------------|
--------------------------|--------------------------|-------------------|


  W                   W                   E  E  E  E  E  E  Q     
-------------------|-------------------|-------------------------|
-------------------|-------------------|-------------------------|
--5----------------|--7----------------|-------------------------|
--5----------------|--7----------------|-----------3--2----------|
--3----------------|--5----------------|--1--3--5--------5--3----|
-------------------|-------------------|-------------------------|


  W                   W                    W                 
-------------------|-------------------|--------------------|
-------------------|-------------------|--------------------|
--7----------------|--5----------------|--10----------------|
--7----------------|--5----------------|--10----------------|
--5----------------|--3----------------|---8----------------|
-------------------|-------------------|--------------------|


  W                   W                   W                   W                 
-------------------|-------------------|-------------------|-------------------|
-------------------|-------------------|-------------------|-------------------|
--5----------------|--7----------------|--5----------------|--7----------------|
--5----------------|--7----------------|--5----------------|--7----------------|
--3----------------|--5----------------|--3----------------|--5----------------|
-------------------|-------------------|-------------------|-------------------|


  E  E  E  E  E  E  Q       W                    W                 
-------------------------|-------------------|--------------------|
-------------------------|-------------------|--------------------|
-------------------------|--7----------------|--10----------------|
-----------3--2----------|--7----------------|--10----------------|
--1--3--5--------5--3----|--5----------------|---8----------------|
-------------------------|-------------------|--------------------|


  W                   H.           Q       E  E  E  E  E  E  E  E   
-------------------|--------------------|--------------------------|
-------------------|--------------------|--------------------------|
--5----------------|--3------------5----|--------------------------|
--5----------------|--3------------5----|--------------------------|
--3----------------|--1------------3----|--0--0--3--0--0--5--0--0--|
-------------------|--------------------|--------------------------|


  E  E  E  E  E  E  E  E     E  E  E  E  E  E  E  E   
--------------------------|--------------------------|
--------------------------|--------------------------|
--------------------------|--------------------------|
--------------------------|--------------------------|
--7--0--0--8--0--0--5--3--|--0--0--3--0--0--5--0--0--|
--------------------------|--------------------------|


  E  E  E  E  E  E  E  E     E  E  E  E  E  E  E  E   
--------------------------|--------------------------|
--------------------------|--------------------------|
--------------------------|--------------------------|
--------------------------|--------------------------|
--8--7--0--7--5--0--5--3--|--0--0--3--0--0--5--0--0--|
--------------------------|--------------------------|


  E  E  E  E  E  E  E  E     E  E  E  E  E  E  E  E   
--------------------------|--------------------------|
--------------------------|--------------------------|
--------------------------|--------------------------|
--------------------------|--------------------------|
--7--0--0--8--0--0--5--3--|--0--0--3--0--0--5--0--0--|
--------------------------|--------------------------|


  E  E  E  E  E  E  E  E     E  E  E  E  E  E  E  E   
--------------------------|--------------------------|
--------------------------|--------------------------|
--------------------------|--------------------------|
--------------------------|--------------7-----------|
--8--7--0--7--5--0--5--3--|--5--5--5--5--5--5--5--5--|
--------------------------|--------------------------|


  E   E  E  E  E  E  E   E     E   E  E  E  E  E  E  E   
----------------------------|---------------------------|
----------------------------|---------------------------|
----------------------------|---------------------------|
--8S--7-----5--------3S--5--|--5S--7--------7-----7-----|
--6S--5--5--3--5--5--1S--3--|--3S--5--5--5--5--5--5--5--|
----------------------------|---------------------------|


  E   Q    H        E     E  E  E  E  E  E  E  E     E   E  E  E  E  E  E   E   
-----------------------|--------------------------|----------------------------|
-----------------------|--------------------------|----------------------------|
-----------------------|--------------------------|----------------------------|
--8S--7----5--------L--|--------------7-----------|--8S--7-----5--------3S--5--|
--6S--5----3--------L--|--5--5--5--5--5--5--5--5--|--6S--5--5--3--5--5--1S--3--|
-----------------------|--------------------------|----------------------------|


  E   E  E  E  E  E  E  E     E   Q    H        E     W                 
---------------------------|-----------------------|-------------------|
---------------------------|-----------------------|-------------------|
---------------------------|-----------------------|--7----------------|
--5S--7--------7-----------|--8S--7----5--------L--|--7----------------|
--3S--5--5--5--5--5--5--5--|--6S--5----3--------L--|--5----------------|
---------------------------|-----------------------|-------------------|


  W                   W                   W                   W                 
-------------------|-------------------|-------------------|-------------------|
-------------------|-------------------|-------------------|-------------------|
--L----------------|--L----------------|--5----------------|--7----------------|
--L----------------|--L----------------|--5----------------|--7----------------|
--L----------------|--L----------------|--3----------------|--5----------------|
-------------------|-------------------|-------------------|-------------------|


  W                   W                   W                 
-------------------|-------------------|-------------------|
-------------------|-------------------|-------------------|
--L----------------|--L----------------|--5----------------|
--L----------------|--L----------------|--5----------------|
--L----------------|--L----------------|--3----------------|
-------------------|-------------------|-------------------|


  E.  S S S S S E.  S S S S S    E.  S S S S S E.  S S S S S  
------------------------------|------------------------------|
------------------------------|------------------------------|
------------------------------|------------------------------|
--9-------------9-------------|--9-------------9-------------|
--7---7-7-7-7-7-7---7-7-7-7-7-|--7---7-7-7-7-7-7---7-7-7-7-7-|
------------------------------|------------------------------|


  S S S S S S S S  S  S  S  S S S S S    S S S S  S  S  S  S S S S S S S S S  
--------------------------------------|--------------------------------------|
--------------------------------------|--------------------------------------|
--9-9-9-9-7-7-7-7---------------------|--7-7-7-7-----------------------------|
------------------10-10-10-10-9-9-9-9-|----------10-10-10-10-9-9-9-9-7-7-7-7-|
--------------------------------------|--------------------------------------|
--------------------------------------|--------------------------------------|


                                               |----3----|     
  E.  S S S S S E.  S S S S S    E.  S S S S S Q    Q    Q     
------------------------------|-------------------------------|
------------------------------|-------------------------------|
------------------------------|-------------------------------|
--7-------------7-------------|--7-------------8----8----8----|
--5---5-5-5-5-5-5---5-5-5-5-5-|--5---5-5-5-5-5-6----6----6----|
------------------------------|-------------------------------|


  E.  S S S S S E.  S S S S S    S S S S S S S S S S S S S S S S  
------------------------------|----------------------------------|
------------------------------|----------------------------------|
------------------------------|----------------------------------|
--7-------------7-------------|--4-4-4-4-5-5-5-5-7-7-7-7-4-4-4-4-|
--5---5-5-5-5-5-5---5-5-5-5-5-|----------------------------------|
------------------------------|----------------------------------|


  E.  S S S S S E.  S S S S S    E.  S S S S S E.  S S S S S  
------------------------------|------------------------------|
------------------------------|------------------------------|
------------------------------|------------------------------|
--9-------------9-------------|--9-------------9-------------|
--7---7-7-7-7-7-7---7-7-7-7-7-|--7---7-7-7-7-7-7---7-7-7-7-7-|
------------------------------|------------------------------|


  S S S S S S S S  S  S  S  S S S S S    S S S S  S  S  S  S S S S S S S S S  
--------------------------------------|--------------------------------------|
--------------------------------------|--------------------------------------|
--9-9-9-9-7-7-7-7---------------------|--7-7-7-7-----------------------------|
------------------10-10-10-10-9-9-9-9-|----------10-10-10-10-9-9-9-9-7-7-7-7-|
--------------------------------------|--------------------------------------|
--------------------------------------|--------------------------------------|


                                               |----3----|     
  E.  S S S S S E.  S S S S S    E.  S S S S S Q    Q    Q     
------------------------------|-------------------------------|
------------------------------|-------------------------------|
------------------------------|-------------------------------|
--7-------------7-------------|--7-------------8----8----8----|
--5---5-5-5-5-5-5---5-5-5-5-5-|--5---5-5-5-5-5-6----6----6----|
------------------------------|-------------------------------|


  E.  S S S S S E.  S S S S S    S S S S S S S S S S S S S S S S  
------------------------------|----------------------------------|
------------------------------|----------------------------------|
------------------------------|----------------------------------|
--7-------------7-------------|--4-4-4-4-5-5-5-5-7-7-7-7-4-4-4-4-|
--5---5-5-5-5-5-5---5-5-5-5-5-|----------------------------------|
------------------------------|----------------------------------|


  E.  S S S S S E.  S S S S S    E.  S S S S S E.  S S S S S  
------------------------------|------------------------------|
------------------------------|------------------------------|
------------------------------|------------------------------|
--9-------------9-------------|--9-------------9-------------|
--7---7-7-7-7-7-7---7-7-7-7-7-|--7---7-7-7-7-7-7---7-7-7-7-7-|
------------------------------|------------------------------|


  Q    S S E  Q    Q       Q    S S E  Q    Q       Q    S S E  Q    Q     
------------------------|------------------------|------------------------|
------------------------|------------------------|------------------------|
--7----5-7-4------------|--7----5-7-4------------|--7----5-7-4------------|
--------------7----5----|--------------7----5----|--------------7----5----|
------------------------|------------------------|------------------------|
------------------------|------------------------|------------------------|


  Q    S S E  Q    Q       S S S S S S S S S S S S S S S S  
------------------------|----------------------------------|
------------------------|----------------------------------|
--7----5-7-4------------|------------------7-7-7-7-7-7-----|
--------------7----5----|--4-4-4-4-4-4-7-7-------------7-7-|
------------------------|----------------------------------|
------------------------|----------------------------------|


  S S S S S S S S S S S S S S S S    S S S S S S S S S S S S S S S S  
----------------------------------|----------------------------------|
------------------7-7-7-7-7-7-----|----------------------------------|
----------------------------------|------------------7-7-7-7-7-7-----|
--4-4-4-4-4-4-7-7-------------7-7-|--4-4-4-4-4-4-7-7-------------7-7-|
----------------------------------|----------------------------------|
----------------------------------|----------------------------------|


  S S S S S S S S S S S S S S S S    Q    S S E  Q    Q     
----------------------------------|------------------------|
------------------7-7-7-7-7-7-----|------------------------|
----------------------------------|--7----5-7-4--2----0----|
--4-4-4-4-4-4-7-7-------------7-7-|------------------------|
----------------------------------|------------------------|
----------------------------------|------------------------|


  Q    S S E  Q    Q       Q    S S E  Q    Q       Q    S S E  Q    Q     
------------------------|------------------------|------------------------|
------------------------|------------------------|------------------------|
--7----5-7-4--2----0----|--7----5-7-4--2----0----|--7----5-7-4--2----0----|
------------------------|------------------------|------------------------|
------------------------|------------------------|------------------------|
------------------------|------------------------|------------------------|


  S S S S S S S S S S S S S S S S    S S S S S S S S S S S S S S S S  
----------------------------------|----------------------------------|
----------------------------------|------------------7-7-7-7-7-7-----|
------------------7-7-7-7-7-7-----|----------------------------------|
--4-4-4-4-4-4-7-7-------------7-7-|--4-4-4-4-4-4-7-7-------------7-7-|
----------------------------------|----------------------------------|
----------------------------------|----------------------------------|


  S S S S S S S S S S S S S S S S    S S S S S S S S S S S S S S S S  
----------------------------------|----------------------------------|
----------------------------------|------------------7-7-7-7-7-7-----|
------------------7-7-7-7-7-7-----|----------------------------------|
--4-4-4-4-4-4-7-7-------------7-7-|--4-4-4-4-4-4-7-7-------------7-7-|
----------------------------------|----------------------------------|
----------------------------------|----------------------------------|


  Q    S S E  Q    Q       Q    S S E  Q    Q       Q    S S E  Q    Q     
------------------------|------------------------|------------------------|
------------------------|------------------------|------------------------|
--7----5-7-4------------|--7----5-7-4------------|--7----5-7-4------------|
--------------7----5----|--------------7----5----|--------------7----5----|
------------------------|------------------------|------------------------|
------------------------|------------------------|------------------------|


  Q    S S E  Q    Q       W                   H        Q    Q     
------------------------|-------------------|---------------------|
------------------------|-------------------|---------------------|
--7----5-7-4------------|--5----------------|--L------------------|
--------------7----5----|--5----------------|--L------------------|
------------------------|--3----------------|--L--------3----2----|
------------------------|-------------------|---------------------|


  W                   W                   W                 
-------------------|-------------------|-------------------|
-------------------|-------------------|-------------------|
-------------------|-------------------|-------------------|
--9----------------|--L----------------|--5----------------|
--7----------------|--L----------------|--3----------------|
-------------------|-------------------|-------------------|


  H        Q    Q       W                   W                 
---------------------|-------------------|-------------------|
---------------------|-------------------|-------------------|
---------------------|-------------------|-------------------|
--L------------------|--2----------------|--L----------------|
--L--------3----2----|--2----------------|--L----------------|
---------------------|--0----------------|--L----------------|


  E  E  E  E  E  E  E  E     E  E  E  E  E  E  E  E   
--------------------------|--------------------------|
--------------------------|--------------------------|
--------------------------|--------------------------|
--5--------5--------5-----|--5--------5--------5-----|
--3--3--3--3--3--3--3--3--|--3--3--3--3--3--3--3--3--|
--------------------------|--------------------------|


  E  E  E  E  E  E  E  E     E  E  E  E  E  E  E  E   
--------------------------|--------------------------|
--------------------------|--------------------------|
--------------------------|--------------------------|
--9--------9--------9-----|--9--------9--------9-----|
--7--7--7--7--7--7--7--7--|--7--7--7--7--7--7--7--7--|
--------------------------|--------------------------|


  E  E  E  E  E  E  E  E     E  E  E  E  E  E  Q       E  E  E  E  E  E  E  E   
--------------------------|-------------------------|--------------------------|
--------------------------|-------------------------|--------------------------|
--------------------------|-------------------------|--------------------------|
--5--------5--------5-----|--5--------5--------5----|--------------------------|
--3--3--3--3--3--3--3--3--|--3--3--3--3--3--3--3----|--5--5--5--5--5--5--5--5--|
--------------------------|-------------------------|--------------------------|


  E  E  E  E  E  E  E  E     W                   W                 
--------------------------|-------------------|-------------------|
--------------------------|-------------------|-------------------|
--------------------------|--9----------------|--7----------------|
--------------------------|--9----------------|--7----------------|
--5--5--5--5--5--5--5--5--|--7----------------|--5----------------|
--------------------------|-------------------|-------------------|


  W                   E  E  E  E  E  E  Q       W                 
-------------------|-------------------------|-------------------|
-------------------|-------------------------|-------------------|
--9----------------|-------------------------|--9----------------|
--9----------------|-----------5--4----------|--9----------------|
--7----------------|--3--5--7--------7--5----|--7----------------|
-------------------|-------------------------|-------------------|


  W                    W                   W                 
-------------------|--------------------|-------------------|
-------------------|--------------------|-------------------|
--7----------------|--12----------------|--7----------------|
--7----------------|--12----------------|--7----------------|
--5----------------|--10----------------|--5----------------|
-------------------|--------------------|-------------------|


  W                   W                   W                 
-------------------|-------------------|-------------------|
-------------------|-------------------|-------------------|
--9----------------|--7----------------|--9----------------|
--9----------------|--7----------------|--9----------------|
--7----------------|--5----------------|--7----------------|
-------------------|-------------------|-------------------|


  E  E  E  E  E  E  Q       W                    W                 
-------------------------|-------------------|--------------------|
-------------------------|-------------------|--------------------|
-------------------------|--9----------------|--12----------------|
-----------5--4----------|--9----------------|--12----------------|
--3--5--7--------7--5----|--7----------------|--10----------------|
-------------------------|-------------------|--------------------|


  W                   H.           Q       W                 
-------------------|--------------------|-------------------|
-------------------|--------------------|-------------------|
--7----------------|--5------------7----|-------------------|
--7----------------|--5------------7----|-------------------|
--5----------------|--3------------5----|-------------------|
-------------------|--------------------|-------------------|


  W                   W                   W                   W                 
-------------------|-------------------|-------------------|-------------------|
-------------------|-------------------|-------------------|-------------------|
-------------------|-------------------|-------------------|-------------------|
-------------------|-------------------|-------------------|-------------------|
-------------------|-------------------|-------------------|-------------------|
-------------------|-------------------|-------------------|-------------------|


  W                   W                   W                   W                 
-------------------|-------------------|-------------------|-------------------|
-------------------|-------------------|-------------------|-------------------|
-------------------|-------------------|-------------------|-------------------|
-------------------|-------------------|-------------------|-------------------|
-------------------|-------------------|-------------------|-------------------|
-------------------|-------------------|-------------------|-------------------|


  W                   W                   W                   W                 
-------------------|-------------------|-------------------|-------------------|
-------------------|-------------------|-------------------|-------------------|
-------------------|-------------------|-------------------|-------------------|
-------------------|-------------------|-------------------|-------------------|
-------------------|-------------------|-------------------|-------------------|
-------------------|-------------------|-------------------|-------------------|


  W                   W                   W                   W                 
-------------------|-------------------|-------------------|-------------------|
-------------------|-------------------|-------------------|-------------------|
-------------------|-------------------|-------------------|-------------------|
-------------------|-------------------|-------------------|-------------------|
-------------------|-------------------|-------------------|-------------------|
-------------------|-------------------|-------------------|-------------------|


  W                  
-------------------||
-------------------||
-------------------||
-------------------||
-------------------||
-------------------||




Duration Legend
---------------
W - whole
H - half
Q - quarter
E - 8th
S - 16th
T - 32nd
X - 64th
. - note dotted
|-n-|  - n-tuplets


Tablature Legend
----------------
L - tied note
x - dead note
g - grace note
(n) - ghost note
> - accentuded note
NH - natural harmonic
AH - artificial harmonic
TH - tapped harmonic
SH - semi harmonic
PH - pitch harmonic
h - hammer on
p - pull off
b - bend
br - bendRelease
pb - preBend
pbr - preBendRelease
brb - bendReleaseBend
\n/ - tremolo bar dip
\n - tremolo bar dive
-/n - tremolo bar Release up
/n\ - tremolo bar inverted dip
/n - tremolo bar return
-\n - tremolo bar Release down
S - shift slide
s - legato slide
/ -  slide into from below or out of upwards
\ -  slide into from above or out of downwards
~ - vibrato
W - wide vibrato
tr - trill
TP - tremolo picking
T - tapping
S - slap
P - pop
< - fade in
^ - brush up
v - brush down
comments
We did not receive enough feedback on this tab! Please rate:
print report bad tab
1 2 3 4 5
I want to post or [tab]
guest
You may want to rate the tab now too:
select rating
Please do not post tabs as comments. Select "correction" instead!