Oops, an error
Loading. Please wait.

Guardians Of Mankind Bass Tab

78 views 1 this week
no commentswrite comment
1 2 3 4 5
please rate
Autoscroll
+/-
esc
set tempo
stop
Difficulty
Tuning
intermediate
D# G# C# F# A# D#
WARNING: You are trying to view
                                    content from Ultimate-Guitar.com
                                    in an unauthorized application,
                                    which is prohibited.

                                    Please use an official Ultimate
                                    Guitar Tabs application for iPhone,
                                    iPad or Android to access legitimate
                                    chords, guitar, bass, and drum tabs
                                    from Ultimate-Guitar.com database.

                                    Type "ultimate guitar tabs" in Apple
                                    App Store's or Android Market's
                                    search to find the application.
 Guardians Of Mankind                               


                                                                       Gamma Ray
Dirk



      W                   H        Q    E  E     E  E  Q    H         
F#||-------------------|----------------------|----------------------|
C#||-------------------|----------------------|----------------------|
G#||-------------------|----------------------|----------------------|
D#||-------------------|-------------------3--|--5-------------------|


  W                   E  E  E  E  H           Q    E  E  E  E  E  E   
-------------------|-----------------------|-------------------------|
-------------------|-----------------------|-------------------------|
-------------------|-----------------------|-------------------------|
-------------------|-----5-----5-----------|----------8-----7-----4--|


  E  E  Q    H           H        Q    E  E     E  E  Q    H         
----------------------|----------------------|----------------------|
----------------------|----------------------|----------------------|
----------------------|----------------------|----------------------|
--5-------------------|-------------------4--|--5--5--5-------------|


  S  S S S S  S S S S  S S S   Q        S S S S S S S S S S S S S S S S  
-------------------------------------|----------------------------------|
--5h-7-------------------------------|----------------------------------|
-------0-0-7h-8-0-0-5h-7-0-0-/10\----|----------------------------------|
-------------------------------------|--5-5-5-5-5-5-5-5-5-5-5-5-5-5-5-5-|


  S S S S S S S S S  S S S S S S S    S S S S S S S S S S S S S S S S  
-----------------------------------|----------------------------------|
------------------5h-7-------------|----------------------------------|
-----------------------------------|----------------------------------|
--5-5-5-5-5-5-5-5------5-5-5-5-5-5-|--5-5-5-5-5-5-5-5-5-5-5-5-5-5-5-5-|


  S S S S S S S S S S S S S S S S    S  S S S S S S S S S S S S S S S  
----------------------------------|-----------------------------------|
----------------------------------|--5h-7-----------------------------|
----------------------------------|-----------------------------------|
--5-5-5-5-5-5-5-5-5-5-5-5-5-5-5-5-|-------5-5-5-5-5-5-5-5-5-5-5-5-5-5-|


  S S S S S S S S S S S S S S S S    S  S S S S S  S S S  S S S  S S S S  
----------------------------------|--9-10-9-7-9-7------7-----------------|
----------------------------------|---------------10-9---10-9-7-10-9-7-5-|
----------------------------------|--------------------------------------|
--5-5-5-5-5-5-5-5-5-5-5-5-5-5-5-5-|--------------------------------------|


  S S S S S S S S S S S S E  E     S S S S E  S S S S S S E  E   
--------------------------------|-------------------------------|
--7-5-----5---------------------|-------------------------------|
------8-7---8-7-5-7-5-----------|-------------------------------|
----------------------8-7-5-----|--5-5-5------5-5-5-5-5---------|


  S S S S E  S S S S S S E  E     S S S S E  S S S S S S E  E   
-------------------------------|-------------------------------|
-------------------------------|-------------------------------|
-------------------------------|-------------------------------|
--4-4-4------4-4-4-4-4---------|--3-3-3------3-3-3-3-3---------|


  S S S S E  S S S S S S E  E     S S S S E  S S S S S S E  E   
-------------------------------|-------------------------------|
-------------------------------|-------------------------------|
-------------------------------|-------------------------------|
--2-2-2------2-2-2-2-2---------|--5-5-5------5-5-5-5-5---------|


  S S S S E  S S S S S S Q       S S S S E  S S S S S S E  E   
------------------------------|-------------------------------|
------------------------------|-------------------------------|
------------------------------|-------------------------------|
--8-8-8------8-8-8-8-8-8-8----|--1-1-1------1-1-1-1-1---------|


  S S S S E  S S S S S S Q       E  E  E  E  E  E  E  S S  
------------------------------|---------------------------|
------------------------------|---------------------------|
------------------------------|---------------------------|
--5-5-5------5-5-5-5-5-5------|--5--5--5--5--5--5--5--5-5-|


  E  E  E  E  E  E  E  S S    E  E  E  E  E  E  Q     
---------------------------|-------------------------|
---------------------------|-------------------------|
---------------------------|--------------5-----5----|
--4--4--4--4--4--4--4--4-4-|--3--3--3--3-----5-------|


  E  E  E  E  E  E  E  S S    E  E  E  E  E  E  E  E   
---------------------------|--------------------------|
---------------------------|--------------------------|
---------------------------|--------------------------|
--2--2--2--2--2--2--2--2-2-|--5--5--5--5--5--5--5--7--|


  E  E  E  E  E  E  E  S S    E  E  E  E  E  E  E  E   
---------------------------|--------------------------|
---------------------------|--------------------------|
---------------------------|--------------------------|
--8--8--8--8--8--8--8--0-0-|--1--1--1--1--1--1--1--1--|


  E  E  E  E  E  E  Q       S S S S S S S S S S S S S S E   
-------------------------|---------------------------------|
-------------------------|---------------------------------|
--------------7-----7----|--3-3-3-3-3-3-3-3-3-3-3-3-3-3-5--|
--0--0--0--0-----0-------|---------------------------------|


  S S S S S S S S S S S S E  E     S S S S S S S S S S S S E  E   
--------------------------------|--------------------------------|
--------------------------------|--------------------------------|
-----------------------------3--|--5-5-5-5-5-5-5-5-5-5-5-5-3--2--|
--3-3-3-3-3-3-3-3-3-3-3-3-3-----|--------------------------------|


  S S S S S S S S S S S S E  E     S S S S S S S S S S S S S S S S  
--------------------------------|----------------------------------|
--------------------------------|----------------------------------|
--------------------------------|------------------------------2-2-|
--5-5-5-5-5-5-5-5-5-5-5-5-3--3--|--1-1-1-1-1-1-1-1-1-1-1-1-5-5-----|


  S S S S S S S S S S S S S S S S    S S S S S S S S S S S S E  E   
----------------------------------|--------------------------------|
----------------------------------|--------------------------------|
--3-3-3-3-3-3-3-3-3-3-3-3-3-3-3-3-|--5-5-5-5-5-5-5-5-5-5-5-5-3--5--|
----------------------------------|--------------------------------|


  S  S S S S S E  S  S S S Q          S S S S S S S S S S S S E  S S  
---------------------------------||----------------------------------|
---------------------------------||*---------------------------------|
--5h-7------------5h-7-----7\----||*---------------------------------|
-------0-0-0-0-0-------0-0-------||---5-5-5-5-5-5-5-5-5-5-5-5-5--5-5-|


  S S S S S S S S S S S S E  S S    S S S S S S S S S S S S E  S S  
---------------------------------|---------------------------------|
---------------------------------|---------------------------------|
--7-7-7-7-7-7-7-7-7-7-7-7-7--7-7-|--5-5-5-5-5-5-5-5-5-5-5-5-5--5-5-|
---------------------------------|---------------------------------|


  S S S S S S S S Q    Q       S S S S S S S S S S S S E  S S  
----------------------------|---------------------------------|
------------------7----5----|---------------------------------|
----------------------------|--5-5-5-5-5-5-5-5-5-5-5-5-5--5-5-|
--5-5-5-5-5-5-5-5-----------|---------------------------------|


  S S S S S S S S S S S S E  S S    S S S S S S S S S S S S S S S S  
---------------------------------|----------------------------------|
---------------------------------|----------------------------------|
---------------------------------|--5-5-5-5-5-5-5-5-5-5-5-5-5-5-5-5-|
--5-5-5-5-5-5-5-5-5-5-5-5-5--5-5-|----------------------------------|


  S S S S S S S  S S S S S S S S S      S S S S S S S S S S S S S S S S  
------------------------------------||----------------------------------|
-----------------------------------*||----------------------------------|
--7-7-7-7-7-7-5h-7-7-7-7-7-7-7-7-7-*||--7-7-7-7-7-7-7-7-7-7-7-7-7-7-7-7-|
------------------------------------||----------------------------------|


  S S S S S S S S S S S S S S S S    S S S S S S S S S  S S S S S S S  
----------------------------------|-----------------------------------|
----------------------------------|------------------5h-7-------------|
----------------------------------|-----------------------------------|
--5-5-5-5-5-5-5-5-5-5-5-5-5-5-5-5-|--5-5-5-5-5-5-5-5------5-5-5-5-5-5-|


  S S S S S S S S S S S S S S S S    S S S S S S S S S S S S S S S S  
----------------------------------|----------------------------------|
----------------------------------|----------------------------------|
----------------------------------|----------------------------------|
--5-5-5-5-5-5-5-5-5-5-5-5-5-5-5-5-|--5-5-5-5-5-5-5-5-5-5-5-5-5-5-5-5-|


  S  S S S S S S S S S S S S S S S    S S S S S S S S S S S S S S S S  
-----------------------------------|----------------------------------|
--5h-7-----------------------------|----------------------------------|
-----------------------------------|----------------------------------|
-------5-5-5-5-5-5-5-5-5-5-5-5-5-5-|--5-5-5-5-5-5-5-5-5-5-5-5-5-5-5-5-|


  S  S S S S S  S S S  S S S  S S S S    S S S S S S S S S S S S E  E   
--9-10-9-7-9-7------7-----------------|--------------------------------|
---------------10-9---10-9-7-10-9-7-5-|--7-5-----5---------------------|
--------------------------------------|------8-7---8-7-5-7-5-----------|
--------------------------------------|----------------------8-7-5-----|


  S S S S E  S S S S S S E  E     S S S S E  S S S S S S E  E   
-------------------------------|-------------------------------|
-------------------------------|-------------------------------|
-------------------------------|-------------------------------|
--5-5-5------5-5-5-5-5---------|--4-4-4------4-4-4-4-4---------|


  S S S S E  S S S S S S E  E     S S S S E  S S S S S S E  E   
-------------------------------|-------------------------------|
-------------------------------|-------------------------------|
-------------------------------|-------------------------------|
--3-3-3------3-3-3-3-3---------|--2-2-2------2-2-2-2-2---------|


  S S S S E  S S S S S S E  E     S S S S E  S S S S S S Q     
-------------------------------|------------------------------|
-------------------------------|------------------------------|
-------------------------------|------------------------------|
--5-5-5------5-5-5-5-5---------|--8-8-8------8-8-8-8-8-8-8----|


  S S S S E  S S S S S S E  E     S S S S E  S S S S S S Q     
-------------------------------|------------------------------|
-------------------------------|------------------------------|
-------------------------------|------------------------------|
--1-1-1------1-1-1-1-1---------|--5-5-5------5-5-5-5-5-5------|


  E  E  E  E  E  E  E  E     E  E  E  E  E  E  E  E   
--------------------------|--------------------------|
--------------------------|--------------------------|
--------------------------|--------------------------|
--5--5--5--5--5--5--5--7--|--8--8--8--8--8--8--8--8--|


  E  E  E  E  E  E  E  E     S S S S Q    E  Q.        E.  S E  E  H         
--------------------------|------------------9------|-----------------------|
--------------------------|-------------------------|-----------------------|
--------------------------|-------------------------|-----------2--7--------|
--1--1--1--1--1--1--1--1--|--0-0-0-0-0--------------|--0---4-L--------------|


  S S S S S S S S S S S S S S E     S S S S S S S S S S S S E  E   
---------------------------------|--------------------------------|
---------------------------------|--------------------------------|
--3-3-3-3-3-3-3-3-3-3-3-3-3-3-5--|-----------------------------3--|
---------------------------------|--3-3-3-3-3-3-3-3-3-3-3-3-3-----|


  S S S S S S S S S S S S E  E     S S S S S S S S S S S S E  E   
--------------------------------|--------------------------------|
--------------------------------|--------------------------------|
--5-5-5-5-5-5-5-5-5-5-5-5-3--2--|--------------------------------|
--------------------------------|--5-5-5-5-5-5-5-5-5-5-5-5-3--3--|


  S S S S S S S S S S S S S S S S    S S S S S S S S S S S S S S S S  
----------------------------------|----------------------------------|
----------------------------------|----------------------------------|
------------------------------2-2-|--3-3-3-3-3-3-3-3-3-3-3-3-3-3-3-3-|
--1-1-1-1-1-1-1-1-1-1-1-1-5-5-----|----------------------------------|


  S S S S S S S S S S S S E  E     S  S S S S S E  S  S S S Q      
--------------------------------|---------------------------------|
--------------------------------|---------------------------------|
--5-5-5-5-5-5-5-5-5-5-5-5-3--5--|--5h-7------------5h-7-----7\----|
--------------------------------|-------0-0-0-0-0-------0-0-------|


    S S S S S S S S S S S S E  S S    S S S S S S S S S S S S E  S S  
|----------------------------------|---------------------------------|
|*---------------------------------|---------------------------------|
|*---------------------------------|--7-7-7-7-7-7-7-7-7-7-7-7-7--7-7-|
|---5-5-5-5-5-5-5-5-5-5-5-5-5--5-5-|---------------------------------|


  S S S S S S S S S S S S E  S S    S S S S S S S S Q    Q     
---------------------------------|----------------------------|
---------------------------------|------------------7----5----|
--5-5-5-5-5-5-5-5-5-5-5-5-5--5-5-|----------------------------|
---------------------------------|--5-5-5-5-5-5-5-5-----------|


  S S S S S S S S S S S S E  S S    S S S S S S S S S S S S E  S S  
---------------------------------|---------------------------------|
---------------------------------|---------------------------------|
--5-5-5-5-5-5-5-5-5-5-5-5-5--5-5-|---------------------------------|
---------------------------------|--5-5-5-5-5-5-5-5-5-5-5-5-5--5-5-|


  S S S S S S S S S S S S S S S S    S S S S S S S  S S S S S S S S S    
----------------------------------|------------------------------------||
----------------------------------|-----------------------------------*||
--5-5-5-5-5-5-5-5-5-5-5-5-5-5-5-5-|--7-7-7-7-7-7-5h-7-7-7-7-7-7-7-7-7-*||
----------------------------------|------------------------------------||


  S S S S S S S S S S S S S S S S    S S S S S S S S S S S S S S S S  
----------------------------------|----------------------------------|
----------------------------------|----------------------------------|
--7-7-7-7-7-7-7-7-7-7-7-7-5-5-5-5-|--3-3-3-3-3-3-3-3-3-3-3-3-3-3-3-3-|
----------------------------------|----------------------------------|


  S S S S S S S S S S S S S S S S    S S S S S S S S S S S S S S S S  
----------------------------------|----------------------------------|
----------------------------------|----------------------------------|
----------------------------------|--5-5-5-5-5-5-5-5-5-5-5-5-5-5-5-5-|
--3-3-3-3-3-3-3-3-3-3-3-3-3-3-3-3-|----------------------------------|


  S S S S S S S S S S S S S S S S    S S S S S S S S S S S S S S S S  
----------------------------------|----------------------------------|
----------------------------------|----------------------------------|
----------------------------------|----------------------------------|
--5-5-5-5-5-5-5-5-5-5-5-5-5-5-5-5-|--1-1-1-1-1-1-1-1-1-1-1-1-1-1-1-1-|


  S S S S S S S S S S S S S S S S    S S S S S S S S S S S S S S S S  
----------------------------------|----------------------------------|
----------------------------------|----------------------------------|
--3-3-3-3-3-3-3-3-3-3-3-3-3-3-3-3-|--5-5-5-5-5-5-5-5-5-5-5-5-5-5-5-5-|
----------------------------------|----------------------------------|


  S S S S S S S S S S S S S S S S  
----------------------------------|
----------------------------------|
----------------------------------|
--0-0-0-0-0-0-0-0-0-0-0-0-0-0-0-0-|


   S  S  S  S  S  S  E  S  S  S  S S  S S  S  
-----------------------------------9---------|
--11-11-11-11-11-11-11--L-11-11-11---11-9-10-|
---------------------------------------------|
---------------------------------------------|


   S  S  S  S  S  S  E  S  S  S  S S  S E     S S S S S S E  E  S S S S  E   
-----------------------------------9-------|--------------------------------|
--11-11-11-11-11-11-11--L-11-11-11---11-9--|--7-7-7-7-7-7-7--L--7-7-9-L-11--|
-------------------------------------------|--------------------------------|
-------------------------------------------|--------------------------------|


  S S S S E  E  S  S E   E  E      S  S  S  S  S  S  E  S  S  S  S S  S S  S  
----------8----------8------8--|-----------------------------------9---------|
--9-9-9-9----9--9-10----10-----|--11-11-11-11-11-11-11--L-11-11-11---11-9-10-|
-------------------------------|---------------------------------------------|
-------------------------------|---------------------------------------------|


   S  S  S  S  S  S  E  S  S  S  S S  S E     S S S S S S E  E  S S S S  E   
-----------------------------------9-------|--------------------------------|
--11-11-11-11-11-11-11--L-11-11-11---11-9--|--7-7-7-7-7-7-7--L--7-7-9-L-11--|
-------------------------------------------|--------------------------------|
-------------------------------------------|--------------------------------|


  S S S S E  E  S  S E   E  E     E  S S E  S S E  S S E  S S  
----------8----------8------8--|------------------------------|
--9-9-9-9----9--9-10----10-----|------------------------------|
-------------------------------|---------7-------------7------|
-------------------------------|--0--0-0----0-0-0--0-0----0-0-|


  E  S S E  S S E  S S E  S S    E  S S E  S S E  S S E  S S  
------------------------------|------------------------------|
------------------------------|------------------------------|
---------7-------------7------|------------------------------|
--0--0-0----0-0-0--0-0----0-2-|--3--3-3-3--3-3-3--3-3-3--3-3-|


  E  S S E  S S E  S S E  E     E  S S E  S S E  S S E  E   
-----------------------------|-----------------------------|
-----------------------------|-----------------------------|
--5--5-5-5--5-5-5--5-5-5--6--|--7-------------7---------5--|
-----------------------------|-----0-0-0--0-0----0-0-0-----|


  E  S S E  S S E  S S E  S S    E  S S E  S S E  S S E  S S  
------------------------------|------------------------------|
------------------------------|------------------------------|
--7---------------------------|--3--3-3-3--3-3-3--3-3-3--4-4-|
-----0-0-0--0-0-0--0-0-0--0-0-|------------------------------|


  E  S S E  S S S S S S S S S S    S S S S S S S S S S S S S S S S  
--------------------------------|----------------------------------|
--------------------------------|----------------------------------|
--5--5-5-5--5-5-5-5-5-5-5-5-6-6-|----------------------------------|
--------------------------------|--0-0-0-0-0-0-0-0-0-0-0-0-0-0-0-0-|


  S S S S S S S S S S S S S S S S    S S S S S S S S S S S S S S S S  
----------------------------------|----------------------------------|
----------------------------------|----------------------------------|
--3-3-3-3-3-3-3-3-3-3-3-3-3-3-3-3-|----------------------------------|
----------------------------------|--3-3-3-3-3-3-3-3-3-3-3-3-3-3-3-3-|


  S S S S S S S S S S S S S S S S    S S S S S S S S S S S S S S S S  
----------------------------------|----------------------------------|
----------------------------------|----------------------------------|
--2-2-2-2-2-2-2-2-2-2-0-0-2-2-2-2-|--3-3-3-3-3-3-3-3-3-3-3-3-2-2-2-2-|
----------------------------------|----------------------------------|


  S S S S S S S S S S S S S S S S    S S S S S S S S S S S S S S S S  
----------------------------------|----------------------------------|
----------------------------------|----------------------------------|
--0-0-0-0-0-0-0-0-0-0-2-2-3-3-3-3-|--5-5-5-5-5-5-5-5-5-5-5-5-5-5-5-5-|
----------------------------------|----------------------------------|


  S S S S S S S S S S S S S S S S    E.  S E  E  Q.     E   
----------------------------------|------------------------|
----------------------------------|--------------9---------|
--2-2-2-2-2-2-2-2-2-2-2-2-2-2-2-2-|--2---6-L--9---------3--|
----------------------------------|------------------------|


  Q.     E  Q    Q       Q.     E  E  E  E  E     Q.     E  E  Q    E   
----------------------|------------------------|-----------------------|
---------7--L---------|---------------7--------|--------------------5--|
--5--------------5----|---------7--L-----7-----|--3------------3-------|
----------------------|--5------------------5--|---------3--L----------|


  Q.     E  Q.     E     Q.     E  E  Q    E     Q.     E  E  Q.      
----------------------|---------7--L----------|----------------------|
----------------------|---------------7-------|----------------------|
---------5--L------0--|--5-----------------5--|---------8--8---------|
--3-------------------|-----------------------|--6------------6------|


  E  E  E  E  E  E  E  E     E  E  E  E  S S S S S S S S  
--------------------------|------------------------------|
--------------------------|------------------------------|
--3--3--3--3--3--3--3--3--|--5--5--5--5--5-5-5-5-5-5-5-5-|
--------------------------|------------------------------|


  E.  S E  E  Q    Q         S S S S S S S S S S S S E  S S  
--------------9---------||----------------------------------|
------6-L--9------------||*---------------------------------|
--7---------------------||*---------------------------------|
------------------------||---5-5-5-5-5-5-5-5-5-5-5-5-5--5-5-|


  S S S S S S S S S S S S E  S S    S S S S S S S S S S S S E  S S  
---------------------------------|---------------------------------|
---------------------------------|---------------------------------|
--7-7-7-7-7-7-7-7-7-7-7-7-7--7-7-|--5-5-5-5-5-5-5-5-5-5-5-5-5--5-5-|
---------------------------------|---------------------------------|


  S S S S S S S S Q    Q       S S S S S S S S S S S S E  S S  
----------------------------|---------------------------------|
------------------7----5----|---------------------------------|
----------------------------|--5-5-5-5-5-5-5-5-5-5-5-5-5--5-5-|
--5-5-5-5-5-5-5-5-----------|---------------------------------|


  S S S S S S S S S S S S E  S S    S S S S S S S S S S S S S S S S  
---------------------------------|----------------------------------|
---------------------------------|----------------------------------|
---------------------------------|--5-5-5-5-5-5-5-5-5-5-5-5-5-5-5-5-|
--5-5-5-5-5-5-5-5-5-5-5-5-5--5-5-|----------------------------------|


  S S S S S S S  S S S S S S S S S      S S S S S S S S S S S S S S S S  
------------------------------------||----------------------------------|
-----------------------------------*||----------------------------------|
--7-7-7-7-7-7-5h-7-7-7-7-7-7-7-7-7-*||--5-5-5-5-5-5-5-5-5-5-5-5-5-5-5-5-|
------------------------------------||----------------------------------|


  S S S S S S S S S S S S S S S S      S S S S S S S S S S S S S S S S  
----------------------------------||-----------------------------------|
----------------------------------||*----------------------------------|
--7-7-7-7-7-7-7-7-7-7-7-7-7-7-7-7-||*----------------------------------|
----------------------------------||---7-7-7-7-7-7-7-7-7-7-7-7-7-7-7-7-|


  S S S S S S S S S S S S S S S S    S S S S S S S S S S S S S S S S  
----------------------------------|----------------------------------|
----------------------------------|----------------------------------|
--9-9-9-9-9-9-9-9-9-9-9-9-9-9-9-9-|--7-7-7-7-7-7-7-7-7-7-7-7-7-7-7-7-|
----------------------------------|----------------------------------|


  S S S S S S S S Q    Q       S S S S S S S S S S S S S S S S  
----------------------------|----------------------------------|
----------------------------|----------------------------------|
----------------------------|--7-7-7-7-7-7-7-7-7-7-7-7-7-7-7-7-|
--7-7-7-7-7-7-7-7-7----6----|----------------------------------|


  S S S S S S S S S S S S S S S S    S S S S S S S S S S S S S S S S  
----------------------------------|----------------------------------|
----------------------------------|----------------------------------|
----------------------------------|--7-7-7-7-7-7-7-7-7-7-7-7-7-7-7-7-|
--7-7-7-7-7-7-7-7-7-7-7-7-7-7-7-7-|----------------------------------|


  S S S S S S S S S S S S S S S S      S S S S S S S S S S S S S S S S  
-----------------------------------||----------------------------------|
----------------------------------*||----------------------------------|
--9-9-9-9-9-9-9-9-9-9-9-9-9-9-9-9-*||--9-9-9-9-9-9-9-9-9-9-9-9-9-9-9-9-|
-----------------------------------||----------------------------------|


  S S S S S S S S S S S S S S S S    S S S S S S S S S S S S S S S S  
----------------------------------|----------------------------------|
----------------------------------|----------------------------------|
--5-5-5-5-5-5-5-5-5-5-5-5-5-5-5-5-|----------------------------------|
----------------------------------|--5-5-5-5-5-5-5-5-5-5-5-5-5-5-5-5-|


  S S S S S S S S S S S S S S S S    S S S S S S S S S S S S S S S S  
----------------------------------|----------------------------------|
----------------------------------|----------------------------------|
--7-7-7-7-7-7-7-7-7-7-7-7-7-7-7-7-|----------------------------------|
----------------------------------|--7-7-7-7-7-7-7-7-7-7-7-7-5-5-5-5-|


  S S S S S S S S S S S S S S S S    S S S S S S S S S S S S S S S S  
----------------------------------|----------------------------------|
----------------------------------|----------------------------------|
----------------------------------|--5-5-5-5-5-5-5-5-5-5-5-5-5-5-5-5-|
--3-3-3-3-3-3-3-3-3-3-3-3-3-3-3-3-|----------------------------------|


  S S S S S S S S S S S S S S S S    E.  S E  E  Q    Q     
----------------------------------|------------------------|
----------------------------------|--4-----------4---------|
----------------------------------|-------------------4----|
--0-0-0-0-0-0-0-0-0-0-0-0-0-0-0-0-|------2-L--2------------|


  |----3----|                                                      
  Q    Q    Q    H           W                   W                 
--------------------------|-------------------|-------------------|
--------------------------|-------------------|-------------------|
--------------------------|-------------------|--2----------------|
--2----2----2----2--------|--L----------------|-------------------|


  TP                  TP        TP                             
  W                   H         H            W                 
-------------------|---------------------|--------------------|
-------------------|---------------------|--------------------|
--2----------------|--2--------14--------|--14----------------|
-------------------|---------------------|--------------------|


  Q    Q    H          
---------------------||
--4------------------||
--2------------------||
---------------------||




Duration Legend
---------------
W - whole
H - half
Q - quarter
E - 8th
S - 16th
T - 32nd
X - 64th
. - note dotted
|-n-|  - n-tuplets


Tablature Legend
----------------
L - tied note
x - dead note
g - grace note
(n) - ghost note
> - accentuded note
NH - natural harmonic
AH - artificial harmonic
TH - tapped harmonic
SH - semi harmonic
PH - pitch harmonic
h - hammer on
p - pull off
b - bend
br - bendRelease
pb - preBend
pbr - preBendRelease
brb - bendReleaseBend
\n/ - tremolo bar dip
\n - tremolo bar dive
-/n - tremolo bar Release up
/n\ - tremolo bar inverted dip
/n - tremolo bar return
-\n - tremolo bar Release down
S - shift slide
s - legato slide
/ -  slide into from below or out of upwards
\ -  slide into from above or out of downwards
~ - vibrato
W - wide vibrato
tr - trill
TP - tremolo picking
T - tapping
S - slap
P - pop
< - fade in
^ - brush up
v - brush down
comments
We did not receive enough feedback on this tab! Please rate:
1 2 3 4 5
I want to post or [tab]
guest
You may want to rate the tab now too:
select rating
Please do not post tabs as comments. Select "correction" instead!