Oops, an error
Loading. Please wait.

Guardians Of Mankind Tab

70 views 1 this week
no commentswrite comment
1 2 3 4 5
please rate
Autoscroll
+/-
esc
set tempo
stop
Contributor
Difficulty
Tuning
intermediate
D# G# C# F# A# D#
WARNING: You are trying to view
                                    content from Ultimate-Guitar.com
                                    in an unauthorized application,
                                    which is prohibited.

                                    Please use an official Ultimate
                                    Guitar Tabs application for iPhone,
                                    iPad or Android to access legitimate
                                    chords, guitar, bass, and drum tabs
                                    from Ultimate-Guitar.com database.

                                    Type "ultimate guitar tabs" in Apple
                                    App Store's or Android Market's
                                    search to find the application.
  The Guardians Of Mankind                             


                                                                       Gamma Ray
Kai



      W                   H        Q    E  E   
D#||-------------------|----------------------|
A#||-------------------|----------------------|
F#||-------------------|----------------------|
C#||-------------------|-------------------9--|
G#||-------------------|-------------------7--|
D#||-------------------|----------------------|


  E  S S S S  E  S S S S  E  S S    E  S S S S  E  S S E  E  E   
---------------------------------|------------------------------|
---------------------------------|------------------------------|
--9----------10-----------9------|--7----------10------9--L--9--|
--7-----------7----------10------|--9----------10------9--L--6--|
-----0-0-0-0-----0-0-0-0-----0-0-|-----0-0-0-0-----0-0----------|
---------------------------------|------------------------------|


  E  S S S S  E  S S S S  E  S S    E  S S S S  E  S S E  E  E   
---------------------------------|------------------------------|
---------------------------------|------------------------------|
--9----------10-----------9------|--7----------10------9--L--9--|
--7-----------7----------10------|--9----------10------9--L--6--|
-----0-0-0-0-----0-0-0-0-----0-0-|-----0-0-0-0-----0-0----------|
---------------------------------|------------------------------|


  E  S S S S  E  S S S S  E  S S    E  S S S S  E  S S E  E  E   
---------------------------------|------------------------------|
---------------------------------|------------------------------|
--9----------10-----------9------|--7----------10------9--L--9--|
--7-----------7----------10------|--9----------10------9--L--6--|
-----0-0-0-0-----0-0-0-0-----0-0-|-----0-0-0-0-----0-0----------|
---------------------------------|------------------------------|


  E  S S S S  E  S S S S  E  S S    S S S S S S S S S S S S S S S S  
---------------------------------|----------------------------------|
---------------------------------|--5-------5-6-5---5---------------|
--9----------10-----------9------|----7-5-7-------7---7-5-4-5-4-----|
--7-----------7----------10------|------------------------------7-5-|
-----0-0-0-0-----0-0-0-0-----0-0-|----------------------------------|
---------------------------------|----------------------------------|


  E  S S S S  E  S S S S  E  S S    E  S S S S  E  S S E  S S E   
---------------------------------|-------------------------------|
---------------------------------|-------------------------------|
--9----------10-----------9------|--7----------10------9------9--|
--7-----------7----------10------|--9----------10------9------6--|
-----0-0-0-0-----0-0-0-0-----0-0-|-----0-0-0-0-----0-0----0-0----|
---------------------------------|-------------------------------|


  E  S S S S  E  Q.     S S     E  S S S S  E  Q.     S S  
----------------------------|-----------------------------|
----------------------------|-----------------------------|
--9-------------------------|---9-------------------------|
--7----------10--L----------|--10----------12--L----------|
-----0-0-0-0--8--L------0-0-|------0-0-0-0-10--L------0-0-|
----------------------------|-----------------------------|


  E  S S S S  E  S S S S  E  S S    E  S S S S  E  S S E  Q     
---------------------------------|-----------------------------|
---------------------------------|-----------------------------|
--9----------10-----------9------|--7-----------9------7--L----|
--7-----------7----------10------|--9----------10------9--L----|
-----0-0-0-0-----0-0-0-0-----0-0-|-----0-0-0-0-----0-0---------|
---------------------------------|-----------------------------|


  S S S S S S S S S S S S S S S S    S S S S S S S S S S S S E  E   
----------------------------------|--------------------------------|
--5-6-5---5-----------------------|--------------------------------|
--------7---7-5-4-7-5-4---5-4-----|--------------------------------|
------------------------7-----7-5-|--7-5-----5---------------------|
----------------------------------|------8-7---8-7-5-7-5-----------|
----------------------------------|----------------------8-7-5-----|


  S S S S E  S S S S S S E  E     S S S S E  S S S S S S   Q      
-------------------------------|---------------------------------|
-------------------------------|---------------------------------|
-------------------------------|---------------------------------|
-------------------------------|-------------------------<>6~----|
-------------------------------|---------------------------------|
--5-5-5------5-5-5-5-5---------|--4-4-4------4-4-4-4-4-----------|


  S S S S E  S S S S S S E  E     S S S S E  S S S S S S   Q      
-------------------------------|---------------------------------|
-------------------------------|---------------------------------|
-------------------------------|---------------------------------|
-------------------------------|-------------------------<>4~----|
-------------------------------|---------------------------------|
--3-3-3------3-3-3-3-3---------|--2-2-2------2-2-2-2-2-----------|


  S S S S E  S S S S S S E  E     S S S S E  S S S S S S Q     
-------------------------------|------------------------------|
-------------------------------|------------------------------|
-------------------------------|------------------------------|
-------------------------------|------------------------------|
-------------------------------|------------------------------|
--5-5-5------5-5-5-5-5---------|--8-8-8------8-8-8-8-8-8-8----|


   S  S  S S E   S  S  S  S  S S E  E     S S S S E  S S S S S S Q     
---------------------------------------|------------------------------|
---------------------------------------|------------------------------|
---------------------------------------|------------------------------|
--10-10-10------10-10-10-10-10---------|--7-7-7------7-7-7-7-7-7------|
---8--8--8-------8--8--8--8--8---------|--5-5-5------5-5-5-5-5-5------|
---------------------------------------|------------------------------|


  E  E  E  E  E  E  Q       E  E  E  E  E  E  Q       E  E  E  E  E  E  Q     
-------------------------|-------------------------|-------------------------|
-------------------------|-------------------------|-------------------------|
-------------------------|-------------------------|-------------------------|
-------------------------|-------------------------|-------------------------|
--7--------8--------7----|--7--------8--------7----|--5--------5--------5----|
-----5--5-----5--5-------|-----4--4-----4--4-------|-----3--3-----3--3-------|


  E  E  E  E  E  E  E  E     E  E  E  E  Q    E  E     E  E  E  E  E  E  E  E   
-----------2--3--2--0-----|-------------------------|--------------3-----------|
-----------------------3--|-------------------------|-----------5-----5--------|
--------------------------|-------------------------|--------5-----------5-----|
--------------------------|--2--2--2--2--L----------|--2--5-----------------5--|
-----0--5-----------------|--0--0--0--0--L----0--2--|--------------------------|
--2-----------------------|-------------------------|--------------------------|


  E  E  E  E  Q    E  E     H        H           E  S S S S S S S S S S S S E   
-----5-----6--5----------|--5--------4--------|--------------------------------|
-----6-----6--6----6-----|--5--------5--------|--------------------------------|
-----5-----5--5-------5--|--4--------4--------|--------------------------------|
-------------------------|--------------------|--------------------------------|
-------------------------|--------------------|--3--3-3-3-3-3-3-3-3-3-3-3-3-3--|
-------------------------|--------------------|--------------------------------|


  E  S S S S S S S S S S S S E     E  S S S S S S S S S S S S E   
--------------------------------|--------------------------------|
--------------------------------|--------------------------------|
--------------------------------|--------------------------------|
--------------------------------|--------------------------------|
--------------------------------|--5--5-5-5-5-5-5-5-5-5-5-5-5-5--|
--3--3-3-3-3-3-3-3-3-3-3-3-3-3--|--------------------------------|


  E  S S S S S S Q    Q       E  S S S S S S S S S S S S S S  
---------------------------|---------------------------------|
---------------------------|---------------------------------|
---------------------------|---------------------------------|
---------------------------|---------------------------------|
-----------------7----5----|-----------------8-8-8-8-7-7-5-5-|
--5--5-5-5-5-5-5-5----3----|--1--1-1-1-1-1-1-----------------|


  S S S S S S S S S S S S S S S S    S S S S S S S S S S S S S S E   
----------------------------------|---------------------------------|
----------------------------------|---------------------------------|
----------------------------------|---------------------------------|
----------------------------------|------------------------------7--|
--3-3-3-3-5-5-5-5-7-7-7-7-3-3-3-3-|--5-5-5-5-5-5-5-5-7-7-7-7-8-8----|
----------------------------------|---------------------------------|


  Q    E  E  H             W                   W                 
----------------------||--------------------|-------------------|
----------------------||--------------------|-------------------|
----------------------||*-------------------|-------------------|
--9-------9--L--------||*-------------------|--9----------------|
--7-------7--L--------||---7----------------|--7----------------|
----------------------||---5----------------|-------------------|


  W                   H        Q    Q       Q.     Q.     Q     
-------------------|---------------------|---------------------|
-------------------|---------------------|---------------------|
-------------------|---------------------|---------------------|
--7----------------|---------------------|--7------7------7----|
--5----------------|--7--------7----7----|--5------5------5----|
-------------------|--5--------5----4----|---------------------|


  Q.     Q.     Q       W                   Q    E  E  H           
---------------------|-------------------|-----------------------||
---------------------|-------------------|-----------------------||
---------------------|-------------------|----------------------*||
---------------------|--7----------------|--9-------9--L--------*||
--7------7------7----|--5----------------|--7-------7--L---------||
--5------5------5----|-------------------|-----------------------||


  Q.     Q.     Q       E  S S S S  E  S S S S  E  S S  
---------------------|---------------------------------|
---------------------|---------------------------------|
---------------------|--9----------10-----------9------|
--9------9------9----|--7-----------7----------10------|
--7------7------7----|-----0-0-0-0-----0-0-0-0-----0-0-|
---------------------|---------------------------------|


  E  S S S S  E  S S E  S S E     E  S S S S  E  Q.     S S  
-------------------------------|----------------------------|
-------------------------------|----------------------------|
--7----------10------9------9--|--9-------------------------|
--9----------10------9------6--|--7----------10--L----------|
-----0-0-0-0-----0-0----0-0----|-----0-0-0-0--8--L------0-0-|
-------------------------------|----------------------------|


   E  S S S S  E  Q.     S S    E  S S S S  E  S S S S  E  S S  
-----------------------------|---------------------------------|
-----------------------------|---------------------------------|
---9-------------------------|--9----------10-----------9------|
--10----------12--L----------|--7-----------7----------10------|
------0-0-0-0-10--L------0-0-|-----0-0-0-0-----0-0-0-0-----0-0-|
-----------------------------|---------------------------------|


  E  S S S S  E  S S E  Q       S S S S S S S S S S S S S S S S  
-----------------------------|----------------------------------|
-----------------------------|--5-6-5---5-----------------------|
--7-----------9------7--L----|--------7---7-5-4-7-5-4---5-4-----|
--9----------10------9--L----|------------------------7-----7-5-|
-----0-0-0-0-----0-0---------|----------------------------------|
-----------------------------|----------------------------------|


  S S S S S S S S S S S S E  E     S S S S E  S S S S S S E  E   
--------------------------------|-------------------------------|
--------------------------------|-------------------------------|
--------------------------------|-------------------------------|
--7-5-----5---------------------|-------------------------------|
------8-7---8-7-5-7-5-----------|-------------------------------|
----------------------8-7-5-----|--5-5-5------5-5-5-5-5---------|


  S S S S E  S S S S S S   Q        S S S S E  S S S S S S E  E   
---------------------------------|-------------------------------|
---------------------------------|-------------------------------|
---------------------------------|-------------------------------|
-------------------------<>6~----|-------------------------------|
---------------------------------|-------------------------------|
--4-4-4------4-4-4-4-4-----------|--3-3-3------3-3-3-3-3---------|


  S S S S E  S S S S S S   Q        S S S S E  S S S S S S E  E   
---------------------------------|-------------------------------|
---------------------------------|-------------------------------|
---------------------------------|-------------------------------|
-------------------------<>4~----|-------------------------------|
---------------------------------|-------------------------------|
--2-2-2------2-2-2-2-2-----------|--5-5-5------5-5-5-5-5---------|


  S S S S E  S S S S S S Q        S  S  S S E   S  S  S  S  S S E  E   
------------------------------|---------------------------------------|
------------------------------|---------------------------------------|
------------------------------|---------------------------------------|
------------------------------|--10-10-10------10-10-10-10-10---------|
------------------------------|---8--8--8-------8--8--8--8--8---------|
--8-8-8------8-8-8-8-8-8-8----|---------------------------------------|


  S S S S E  S S S S S S Q       E  E  E  E  Q    E  E   
------------------------------|-------------------------|
------------------------------|-------------------------|
------------------------------|-------------------------|
--7-7-7------7-7-7-7-7-7------|--2--2--2--2--L----------|
--5-5-5------5-5-5-5-5-5------|--0--0--0--0--L----0--2--|
------------------------------|-------------------------|


  E  E  E  E  E  E  E  E     E  E  E  E  E  E  E  E     Q    E  E  H         
--------------3-----------|--------------------------|----------------------|
-----------5-----5--------|--------------------------|----------------------|
--------5-----------5-----|--------------------------|----------------------|
-----5-----------------5--|--------------------------|--9-------9--L--------|
--3-----------------------|--3--3--3--3--3--3--3--3--|--7-------7--L--------|
--------------------------|--1--1--1--1--1--1--1--1--|----------------------|


   E.   E.   E   H            E  S S S S S S S S S S S S E   
---------------------------|--------------------------------|
------------12--16b--------|--------------------------------|
-------13------------------|--------------------------------|
--14-----------------------|--------------------------------|
---------------------------|--3--3-3-3-3-3-3-3-3-3-3-3-3-3--|
---------------------------|--------------------------------|


  E  S S S S S S S S S S S S E     E  S S S S S S S S S S S S E   
--------------------------------|--------------------------------|
--------------------------------|--------------------------------|
--------------------------------|--------------------------------|
--------------------------------|--------------------------------|
--------------------------------|--5--5-5-5-5-5-5-5-5-5-5-5-5-5--|
--3--3-3-3-3-3-3-3-3-3-3-3-3-3--|--------------------------------|


  E  S S S S S S Q    Q       E  S S S S S S S S S S S S S S  
---------------------------|---------------------------------|
---------------------------|---------------------------------|
---------------------------|---------------------------------|
---------------------------|---------------------------------|
-----------------7----5----|-----------------8-8-8-8-7-7-5-5-|
--5--5-5-5-5-5-5-5----3----|--1--1-1-1-1-1-1-----------------|


  S S S S S S S S S S S S S S S S    S S S S S S S S S S S S S S E   
----------------------------------|---------------------------------|
----------------------------------|---------------------------------|
----------------------------------|---------------------------------|
----------------------------------|------------------------------7--|
--3-3-3-3-5-5-5-5-7-7-7-7-3-3-3-3-|--5-5-5-5-5-5-5-5-7-7-7-7-8-8----|
----------------------------------|---------------------------------|


  Q    E  E  H             W                   W                 
----------------------||--------------------|-------------------|
----------------------||--------------------|-------------------|
----------------------||*-------------------|-------------------|
--9-------9--L--------||*-------------------|--9----------------|
--7-------7--L--------||---7----------------|--7----------------|
----------------------||---5----------------|-------------------|


  W                   H        Q    Q       Q.     Q.     Q     
-------------------|---------------------|---------------------|
-------------------|---------------------|---------------------|
-------------------|---------------------|---------------------|
--7----------------|---------------------|--7------7------7----|
--5----------------|--7--------7----7----|--5------5------5----|
-------------------|--5--------5----4----|---------------------|


  Q.     Q.     Q       W                   Q    E  E  H           
---------------------|-------------------|-----------------------||
---------------------|-------------------|-----------------------||
---------------------|-------------------|----------------------*||
---------------------|--7----------------|--9-------9--L--------*||
--7------7------7----|--5----------------|--7-------7--L---------||
--5------5------5----|-------------------|-----------------------||


  Q.     Q.     Q       H.           Q       W                 
---------------------|--------------------|-------------------|
---------------------|--------------------|-------------------|
---------------------|--------------------|-------------------|
--9------9------9----|--5-----------------|-------------------|
--7------7------7----|--3------------7----|--5----------------|
---------------------|--------------------|--3----------------|


  H        E  E   E  E     Q    Q    Q    Q       H        E  E  E  E   
------------------------|----------------------|-----------------------|
------------------------|----------------------|-----------------------|
------------------------|----------------------|-----------------------|
--7--------L------------|-------2--------------|-----------------------|
--5--------L--8--10--8--|--4---------4----0----|--3--------L--8--7--5--|
------------------------|----------------------|--1--------L-----------|


  Q    Q    Q    Q       H        Q    Q       W                 
----------------------|---------------------|-------------------|
----------------------|---------------------|-------------------|
----------------------|---------------------|-------------------|
--2----3----5----2----|--4--------5----7----|--6----------------|
--3----5----7----3----|--5--------7----9----|--7----------------|
----------------------|---------------------|-------------------|


  S S S S S S E  S S S S S S S S    S S S S S S E  S S S S S S E   
---------------------------------|--------------------------------|
---------------------------------|--------------------------------|
---------------------------------|--------------------------------|
-------------------------2-------|-------------------------2------|
--4-4-4-4-4-4-4--L-4-4-4---4-2-3-|--4-4-4-4-4-4-4--L-4-4-4---4-2--|
---------------------------------|--------------------------------|


  S S S S S S E  S S S E  S E     S S S S S S S S S S E  E  E   
-------------------------------|-------------------------------|
-------------------------------|-------------------------------|
-------------------------------|-------------------------------|
-------------------------------|----------1-1---------1-----1--|
-----------------------2--L-4--|--2-2-4-4-----2-2-2-3----3-----|
--5-5-5-5-L-5-5--5-5-5---------|-------------------------------|


  S S S S S S E  S S S S S S S S    S S S S S S E  S S S S S S E   
---------------------------------|--------------------------------|
---------------------------------|--------------------------------|
---------------------------------|--------------------------------|
-------------------------2-------|-------------------------2------|
--4-4-4-4-4-4-4--L-4-4-4---4-2-3-|--4-4-4-4-4-4-4--L-4-4-4---4-2--|
---------------------------------|--------------------------------|


  S S S S S S E  S S S E  S E     S S S S S S S S S S E  E  E   
-------------------------------|-------------------------------|
-------------------------------|-------------------------------|
-------------------------------|-------------------------------|
-------------------------------|----------1-1---------1-----1--|
-----------------------2--L-4--|--2-2-4-4-----2-2-2-3----3-----|
--5-5-5-5-L-5-5--5-5-5---------|-------------------------------|


  E  S S E  S S E  S S Q       E  S S E  S S E  S S E   E   
----------------------------|------------------------------|
----------------------------|------------------------------|
----------------------------|------------------------------|
--9--9-9-9--9-9-9--9-9-7----|--9--9-9-9--9-9-9--9-9-9--11--|
--7--7-7-7--7-7-7--7-7-5----|--7--7-7-7--7-7-7--7-7-7---9--|
--0--0-0-0--0-0-0--0-0------|--0--0-0-0--0-0-0--0-0--------|


  E  S S E  S S E  S S S S S S    E  S S E  S S S S  S  S  S  S S S  
-------------------------------|------------------------------------|
-------------------------------|------------------------------------|
-------------------------------|------------------------------------|
-------------------------------|------------------------------------|
--5--5-5-5--5-5-5--5-5-9-9-7-7-|--9--9-9-9--9-9-9-9-10-10-12-12-9-9-|
--3--3-3-3--3-3-3--3-3---------|------------------------------------|


  E  S S E  S S E  S S E  E     E  S S E  S S Q    Q     
-----------------------------|--------------------------|
-----------------------------|--------------------------|
-----------------------------|--------------------------|
--9--------------------9--7--|--9-------------9----7----|
--7--------------------7--5--|--7-------------7----5----|
-----0-0-0--0-0-0--0-0-------|-----0-0-0--0-0-----------|


  E  S S E  S S E  S S E  S S    S S  S  S  S  S S S S S  S  S  S  S S S  
------------------------------|------------------------------------------|
------------------------------|------------------------------------------|
------------------------------|------------------------------------------|
--5--5-5-5--5-5-5--5-5-5--5-5-|------------------------------------------|
--3--3-3-3--3-3-3--3-3-3--3-3-|--9-9-10-10-12-12-9-9-9-9-12-12-10-10-9-9-|
------------------------------|------------------------------------------|


   S  S  S  S  S  S  S  S  S  S  S  S  S  S  S  S  
--------------------------------------------------|
--------------------------------------------------|
--------------------------------------------------|
--------------------------------------------------|
--10-10-10-10-10-10-10-10-10-10-10-10-12-12-10-10-|
--------------------------------------------------|


  S S S S S S S S  S  S  S  S S S S S    S S S S S S S S S S S S S S S S  
--------------------------------------|----------------------------------|
--------------------------------------|----------------------------------|
--------------------------------------|----------------------------------|
--------------------------------------|----------5-5-5-5---------5-5-5-5-|
--7-7-7-7-7-7-9-9-10-10-10-10-9-9-7-7-|--5-5-5-5---------5-5-5-5---------|
--------------------------------------|----------------------------------|


  S S S S S S S S S S S S S S S S    S S S S S S S S  S  S  S  S  S  S  S  S  
----------------------------------|------------------------------------------|
----------------------------------|------------------------------------------|
----------------------------------|------------------------------------------|
--4-4-4-4---------4-4-4-4---------|------------------------------------------|
----------6-6-6-6---------6-6-6-6-|--7-7-7-7-9-9-9-9-10-10-10-10-12-12-12-12-|
----------------------------------|------------------------------------------|


  S S S S S S S S S S S S S S S S    S S S S  S  S  S  S S S S S S S S S  
----------------------------------|--------------------------------------|
----------------------------------|--------------------------------------|
----------------------------------|--------------------------------------|
----------------------------------|--------------------------------------|
--3-3-3-3-4-4-4-4-5-5-5-5-7-7-7-7-|--9-9-9-9-10-10-10-10-9-9-9-9-7-7-7-7-|
----------------------------------|--------------------------------------|


  S S S S S S S S E.  S E  E     E.  S E  E   H           W                 
------------------------------|------------------------|-------------------|
------------------------------|------------------------|-------------------|
------------------------------|--8---7-L--8--11--------|-------------------|
------------------9---8-L--9--|------------------------|-------------------|
--6-6-6-6-9-9-9-9-------------|------------------------|-------------------|
------------------------------|------------------------|-------------------|


  W                   W                   W                   W                 
-------------------|-------------------|-------------------|-------------------|
-------------------|-------------------|-------------------|-------------------|
-------------------|-------------------|-------------------|-------------------|
-------------------|-------------------|-------------------|-------------------|
-------------------|-------------------|-------------------|-------------------|
-------------------|-------------------|-------------------|-------------------|


  W                   W                   H        S S S S S S E   
-------------------|-------------------|--------------------------|
-------------------|-------------------|--------------------------|
-------------------|-------------------|--------------------------|
-------------------|-------------------|-----------7-7-7-7-7-7-7--|
-------------------|-------------------|-----------5-5-5-5-5-5-5--|
-------------------|-------------------|--------------------------|


  E.  S E  E  Q     Q          W                   W                 
--------------------------||--------------------|-------------------|
--------------------------||--------------------|-------------------|
--------------------------||*-------------------|-------------------|
--------------2-----------||*-------------------|--9----------------|
-----------2-------10\----||---7----------------|--7----------------|
--0---4-L-----------------||---5----------------|-------------------|


  W                   H        Q    Q       Q.     Q.     Q     
-------------------|---------------------|---------------------|
-------------------|---------------------|---------------------|
-------------------|---------------------|---------------------|
--7----------------|---------------------|--7------7------7----|
--5----------------|--7--------7----7----|--5------5------5----|
-------------------|--5--------5----4----|---------------------|


  Q.     Q.     Q       W                   Q    E  E  H           
---------------------|-------------------|-----------------------||
---------------------|-------------------|-----------------------||
---------------------|-------------------|----------------------*||
---------------------|--7----------------|--9-------9--L--------*||
--7------7------7----|--5----------------|--7-------7--L---------||
--5------5------5----|-------------------|-----------------------||


  E  S S S S S S S S S S S S S S    S S S S S S E  Q     Q      
---------------------------------|-----------------------------|
---------------------------------|-----------------------------|
---------------------------------|-----------------------------|
--7--7-7-7-7-7-7-----------------|--9-----------9--L-----------|
--5--5-5-5-5-5-5-7-7-7-7-9-9-9-9-|--7-7-7-7-7-7-7--L----10\----|
---------------------------------|-----------------------------|


    W                    W                   W                 
|--------------------|--------------------|-------------------|
|--------------------|--------------------|-------------------|
|*-------------------|--------------------|-------------------|
|*-------------------|--11----------------|--9----------------|
|---9----------------|---9----------------|--7----------------|
|---7----------------|--------------------|-------------------|


  H        Q    Q       H.           Q       Q.     E  Q    Q     
---------------------|--------------------|----------------------|
---------------------|--------------------|----------------------|
---------------------|--------------------|----------------------|
---------------------|--9------------9----|----------------------|
--9--------9----9----|--7------------7----|--9------9--L----9----|
--7--------7----6----|--------------------|--7------7--L----7----|


  S S S S S S S S S S S S  S  S  S  S     S S S S S S  E  Q     Q        
--------------------------------------|--------------------------------||
--------------------------------------|--------------------------------||
--------------------------------------|-------------------------------*||
--------------------------------------|--11-----------11--L-----------*||
--7-7-7-7-7-7-7-7-9-9-9-9-11-11-11-11-|---9-9-9-9-9-9--9--L----10\-----||
--------------------------------------|--------------------------------||


   Q.      E  Q     Q       S S S S S S S S S S S S S S S S  
-------------------------|----------------------------------|
-------------------------|----------------------------------|
-------------------------|----------------------------------|
--11------11--L----11----|----------------------------------|
---9-------9--L-----9----|--5-5-5-5-5-5-5-5-5-5-9-9-5-5-9-9-|
-------------------------|----------------------------------|


  S S S S S S S S S S S S S S S S    S S S S S S S S S S  S  S S S  S  S  
----------------------------------|--------------------------------------|
----------------------------------|--------------------------------------|
----------------------------------|--------------------------------------|
----------------------------------|--------------------------------------|
----------7-7-7-7-4-4-4-4---------|--7-7-7-7-7-7-7-7-7-7-10-10-7-7-10-10-|
--5-5-5-5-----------------5-5-5-5-|--------------------------------------|


  S S S S S S S S S S S S Q       S S S S S S S S  S  S  S  S S S S S  
-------------------------------|--------------------------------------|
-------------------------------|--------------------------------------|
-------------------------------|--------------------------------------|
-------------------------------|--------------------------------------|
--6-6-7-7-9-9-7-7-6-6-6-6-7----|--5-5-5-5-5-5-7-7-10-10-10-10-9-9-7-7-|
--------------------------5----|--------------------------------------|


  S S S S S S S S S S S S S S S S    Q.     E  Q    Q        W                 
----------------------------------|----------------------|--------------------|
----------------------------------|----------------------|--------------------|
----------------------------------|----------------------|--------------------|
----------------------------------|--9------9--9----9----|--11----------------|
--5-5-5-5-7-7-7-7-9-9-9-9-5-5-5-5-|--7------7--7----7----|---9----------------|
----------------------------------|----------------------|--------------------|


   |-----3-----|                                                             
   Q     Q     Q     H           H         Q      Q        W                 
------------------------------|-------------------------|-------------------|
------------------------------|-------------------------|-------------------|
------------------------------|-------------------------|-------------------|
--11----11----11----11--------|--L----------------------|--4----------------|
---9-----9-----9-----9--------|--L--------10/-----L\----|--2----------------|
------------------------------|-------------------------|-------------------|


  W                   W                   W                 
-------------------|-------------------|-------------------|
-------------------|-------------------|-------------------|
-------------------|-------------------|-------------------|
--L----------------|--L----------------|--L----------------|
--L----------------|--L----------------|--L----------------|
-------------------|-------------------|-------------------|


  Q    Q    H          
---------------------||
---------------------||
---------------------||
--4------------------||
--2------------------||
---------------------||




Duration Legend
---------------
W - whole
H - half
Q - quarter
E - 8th
S - 16th
T - 32nd
X - 64th
. - note dotted
|-n-|  - n-tuplets


Tablature Legend
----------------
L - tied note
x - dead note
g - grace note
(n) - ghost note
> - accentuded note
NH - natural harmonic
AH - artificial harmonic
TH - tapped harmonic
SH - semi harmonic
PH - pitch harmonic
h - hammer on
p - pull off
b - bend
br - bendRelease
pb - preBend
pbr - preBendRelease
brb - bendReleaseBend
\n/ - tremolo bar dip
\n - tremolo bar dive
-/n - tremolo bar Release up
/n\ - tremolo bar inverted dip
/n - tremolo bar return
-\n - tremolo bar Release down
S - shift slide
s - legato slide
/ -  slide into from below or out of upwards
\ -  slide into from above or out of downwards
~ - vibrato
W - wide vibrato
tr - trill
TP - tremolo picking
T - tapping
S - slap
P - pop
< - fade in
^ - brush up
v - brush down
comments
We did not receive enough feedback on this tab! Please rate:
print report bad tab
1 2 3 4 5
I want to post or [tab]
guest
You may want to rate the tab now too:
select rating
Please do not post tabs as comments. Select "correction" instead!