Oops, an error
Loading. Please wait.

Heading For Tomorrow Tab

ver2
ver2

Whole song

Interactive

More versions @911Tabs.com
292 views 3 this week
no commentswrite comment
1 2 3 4 5
excellent!
x 1
Autoscroll
+/-
esc
set tempo
stop
Contributor
Difficulty
intermediate
NEW! There's an official Ultimate Guitar app which is ideal
for learning songs when you're away from computer. Get the app
WARNING: You are trying to view
                                    content from Ultimate-Guitar.com
                                    in an unauthorized application,
                                    which is prohibited.

                                    Please use an official Ultimate
                                    Guitar Tabs application for iPhone,
                                    iPad or Android to access legitimate
                                    chords, guitar, bass, and drum tabs
                                    from Ultimate-Guitar.com database.

                                    Type "ultimate guitar tabs" in Apple
                                    App Store's or Android Market's
                                    search to find the application.
  Heading for Tomorrow                               


                                                                       Gamma Ray
Kai - guitare



     W                   W                   W                 
E||-------------------|-------------------|-------------------|
B||-------------------|-------------------|-------------------|
G||-------------------|-------------------|-------------------|
D||-------------------|-------------------|-------------------|
A||-------------------|-------------------|-------------------|
E||-------------------|-------------------|-------------------|


  W                   Q    Q    S S S S S S S S    Q    Q    S S S S Q      
-------------------|----------------------------|--------------------------|
-------------------|----------------------------|--------------------------|
-------------------|----------------------------|--------------------------|
-------------------|--9----7----7-9-9-7-9-------|--9----7----7-9-9-7-9\----|
-------------------|--7----5----5-7-7-5-7---9---|--7----5----5-7-7-5-7\----|
-------------------|------------------------7---|--------------------------|


  Q    Q    S S S S S S S S    Q    Q    S S S S Q        W                 
----------------------------|--------------------------|-------------------|
----------------------------|--------------------------|-------------------|
----------------------------|--------------------------|-------------------|
--9----7----5-5-5-4-5---4---|--5----7----7-9-9-7-9\----|-------------------|
--7----5----3-3-3-2-3---2---|--3----5----5-7-7-5-7\----|-------------------|
----------------------------|--------------------------|-------------------|


  W                   W                   W                   W                 
-------------------|-------------------|-------------------|-------------------|
-------------------|-------------------|-------------------|-------------------|
-------------------|-------------------|-------------------|-------------------|
-------------------|-------------------|-------------------|-------------------|
-------------------|-------------------|-------------------|-------------------|
-------------------|-------------------|-------------------|-------------------|


         PM PM    PM PM PM PM PM            
    S  S S  S  E  S  S  S  S  S  S S S S S  
|------------------------------------------|
|------------------------------------------|
|*-----------------------------------------|
|*--7s-9-------9---------------------------|
|---5s-7-------7--------7--6--5--7---5-5-5-|
|--------0--0-----0--0-----------5---3-3-3-|


       PM PM    PM PM                    
  S  S S  S  E  S  S  S  S S  S S  E.    
----------------------------------------|
----------------------------------------|
----------------------------------------|
-------------9---------------12---14\---|
--5----------7--------7p-5---10---12\---|
--3p-0-0--0-----0--0-------0------------|


       PM PM    PM PM PM PM PM            
  S  S S  S  E  S  S  S  S  S  S S S S S  
-----------------------------------------|
-----------------------------------------|
-----------------------------------------|
--7s-9-------9---------------------------|
--5s-7-------7--------7--6--5--7---5-5-5-|
-------0--0-----0--0-----------5---3-3-3-|


       PM PM    PM PM                                        
  S  S S  S  E  S  S  S  S S  S S  E.      W                 
----------------------------------------|-------------------|
----------------------------------------|-------------------|
----------------------------------------|-------------------|
-------------9---------------12---14\---|--9----------------|
--5----------7--------7p-5---10---12\---|--7----------------|
--3p-0-0--0-----0--0-------0------------|--0----------------|


                                                     PM           
  W                   W                    H         H            
-------------------|-------------------|------------------------||
-------------------|-------------------|------------------------||
-------------------|-------------------|-----------------------*||
--L----------------|--L----------------|---L-------------------*||
--L----------------|--L----------------|---L--------15\---------||
--L----------------|--L----------------|---L--------------------||


  W                   H.           Q       W                 
-------------------|--------------------|-------------------|
-------------------|--------------------|-------------------|
-------------------|--------------------|-------------------|
--7----------------|--7-----------------|--9----------------|
--5----------------|--5-----------------|--7----------------|
-------------------|---------------7----|--0----------------|


            TP                PM PM                     PM PM  
  H         H            S  S S  S  E  S S  S S  S S E  S  S   
----------------------|---------------------------------------|
----------------------|---------------------------------------|
----------------------|---------------------------------------|
--L-------------------|--7s-9-------9--9-7-12---12---9--------|
--L--------15\--------|--5s-7-------7--7-5-10---10---7--------|
--L-------------------|-------0--0----------------------0--0--|


       PM PM                   PM PM         PM PM                     PM PM  
  S  S S  S  E  S S S S S S E  S  S     S  S S  S  E  S S  S S  S S E  S  S   
-------------------------------------|---------------------------------------|
-------------------------------------|---------------------------------------|
-------------------------------------|---------------------------------------|
--9s-7-------7--7-4-7---9---9--------|--7s-9-------9--9-7-12---12---9--------|
--7s-5-------5--5-2-5---7---7--------|--5s-7-------7--7-5-10---10---7--------|
-------0--0--------------------0--0--|-------0--0----------------------0--0--|


       PM PM                                PM PM      PM PM      PM PM PM      
  S  S S  S  E  S S S S S S Q          S  S S  S  S  S S  S  S  S S  S  S  E.   
----------------------------------||-------------------------------------------|
----------------------------------||-------------------------------------------|
----------------------------------||*------------------------------------------|
--9s-7-------7--7-4-7---9---9\----||*-----4----------4----------4----------7---|
--7s-5-------5--5-2-5---7---7\----||---0h-2-2--2--0h-2-2--2--0h-2-2--0--2--5---|
-------0--0-----------------------||-------------------------------------------|


       PM PM      PM PM      PM PM PM      
  S  S S  S  S  S S  S  S  S S  S  S  E.   
------------------------------------------|
------------------------------------------|
------------------------------------------|
-----4----------4----------4----------7---|
--0h-2-2--2--0h-2-2--2--0h-2-2--0--2--5---|
------------------------------------------|


       PM PM      PM PM      PM PM     PH    
  S  S S  S  S  S S  S  S  S S  S  S   E.    
--------------------------------------------|
--------------------------------------------|
--------------------------------------------|
--------------------------------------------|
--5s-7-------5s-7-------5s-7---------<>4~---|
--3s-5-5--5--3s-5-5--5--3s-5-5--3--5--------|


       PM PM      PM PM PM PM PM PM PM PM PM PM PM                             
  S  S S  S  S  S S  T  T  S  S  S  S  S  S  S  S        H.           S  S E   
----------------------------------------------------||------------------------|
----------------------------------------------------||------------------------|
---------------------------------------------------*||*-----------------------|
-----4----------4----------------------------------*||*-----------------------|
--0h-2-2--2--0h-2-2--2--2--2--3-----2---------------||---5-----------------5--|
---------------------------------5-----3--5--2--0---||---3------------3h-5-3--|


                        PM PM PM PM   PM PM PM      PM PM           
  H        H            S  S  S  S  S S  S  S  S  S S  S  S S S  S  
---------------------|---------------------------------------------|
---------------------|---------------------------------------------|
---------------------|---------------------------------------------|
---------------------|--------------9----------7s-9-------9---7s-9-|
--4--------1~--------|--------------7----------5s-7-------7---5s-7-|
--2------------------|--0--0--0--0----0--0--0-------0--0----0------|


     PH                                   
     S S S S S S S   S S S S S S S S S    
----------------------------------------||
----------------------------------------||
---------------------------------------*||
-------------9-------------------------*||
--<>10-------7-----5g7-L-5---5----------||
-------0-0-0---0-0---------7---6-5-3-0--||


       PM PM    PM PM PM PM PM            
  S  S S  S  E  S  S  S  S  S  S S S S S  
-----------------------------------------|
-----------------------------------------|
-----------------------------------------|
--7s-9-------9---------------------------|
--5s-7-------7--------7--6--5--7---5-5-5-|
-------0--0-----0--0-----------5---3-3-3-|


       PM PM    PM PM                    
  S  S S  S  E  S  S  S  S S  S S  E.    
----------------------------------------|
----------------------------------------|
----------------------------------------|
-------------9---------------12---14\---|
--5----------7--------7p-5---10---12\---|
--3p-0-0--0-----0--0-------0------------|


       PM PM    PM PM PM PM PM            
  S  S S  S  E  S  S  S  S  S  S S S S S  
-----------------------------------------|
-----------------------------------------|
-----------------------------------------|
--7s-9-------9---------------------------|
--5s-7-------7--------7--6--5--7---5-5-5-|
-------0--0-----0--0-----------5---3-3-3-|


       PM PM    PM PM                                        
  S  S S  S  E  S  S  S  S S  S S  E.      W                 
----------------------------------------|-------------------|
----------------------------------------|-------------------|
----------------------------------------|-------------------|
-------------9---------------12---14\---|--9----------------|
--5----------7--------7p-5---10---12\---|--7----------------|
--3p-0-0--0-----0--0-------0------------|--0----------------|


            TP                PM PM                     PM PM  
  H         H            S  S S  S  E  S S  S S  S S E  S  S   
----------------------|---------------------------------------|
----------------------|---------------------------------------|
----------------------|---------------------------------------|
--L-------------------|--7s-9-------9--9-7-12---12---9--------|
--L--------15\--------|--5s-7-------7--7-5-10---10---7--------|
--L-------------------|-------0--0----------------------0--0--|


       PM PM                   PM PM         PM PM                     PM PM  
  S  S S  S  E  S S S S S S E  S  S     S  S S  S  E  S S  S S  S S E  S  S   
-------------------------------------|---------------------------------------|
-------------------------------------|---------------------------------------|
-------------------------------------|---------------------------------------|
--9s-7-------7--7-4-7---9---9--------|--7s-9-------9--9-7-12---12---9--------|
--7s-5-------5--5-2-5---7---7--------|--5s-7-------7--7-5-10---10---7--------|
-------0--0--------------------0--0--|-------0--0----------------------0--0--|


       PM PM                                PM PM      PM PM      PM PM PM      
  S  S S  S  E  S S S S S S Q          S  S S  S  S  S S  S  S  S S  S  S  E.   
----------------------------------||-------------------------------------------|
----------------------------------||-------------------------------------------|
----------------------------------||*------------------------------------------|
--9s-7-------7--7-4-7---9---9\----||*-----4----------4----------4----------7---|
--7s-5-------5--5-2-5---7---7\----||---0h-2-2--2--0h-2-2--2--0h-2-2--0--2--5---|
-------0--0-----------------------||-------------------------------------------|


       PM PM      PM PM      PM PM PM      
  S  S S  S  S  S S  S  S  S S  S  S  E.   
------------------------------------------|
------------------------------------------|
------------------------------------------|
-----4----------4----------4----------7---|
--0h-2-2--2--0h-2-2--2--0h-2-2--0--2--5---|
------------------------------------------|


       PM PM      PM PM      PM PM     PH    
  S  S S  S  S  S S  S  S  S S  S  S   E.    
--------------------------------------------|
--------------------------------------------|
--------------------------------------------|
--------------------------------------------|
--5s-7-------5s-7-------5s-7---------<>4~---|
--3s-5-5--5--3s-5-5--5--3s-5-5--3--5--------|


       PM PM      PM PM PM PM PM PM PM PM PM PM PM                             
  S  S S  S  S  S S  T  T  S  S  S  S  S  S  S  S        H.           S  S E   
----------------------------------------------------||------------------------|
----------------------------------------------------||------------------------|
---------------------------------------------------*||*-----------------------|
-----4----------4----------------------------------*||*-----------------------|
--0h-2-2--2--0h-2-2--2--2--2--3-----2---------------||---5-----------------5--|
---------------------------------5-----3--5--2--0---||---3------------3h-5-3--|


                        PM PM PM PM   PM PM PM      PM PM           
  H        H            S  S  S  S  S S  S  S  S  S S  S  S S S  S  
---------------------|---------------------------------------------|
---------------------|---------------------------------------------|
---------------------|---------------------------------------------|
---------------------|--------------9----------7s-9-------9---7s-9-|
--4--------1~--------|--------------7----------5s-7-------7---5s-7-|
--2------------------|--0--0--0--0----0--0--0-------0--0----0------|


     PH                                                       
     S S S S S S S   S S S S S S S S S      W                 
----------------------------------------||-------------------|
----------------------------------------||-------------------|
---------------------------------------*||-------------------|
-------------9-------------------------*||-------------------|
--<>10-------7-----5g7-L-5---5----------||--2----------------|
-------0-0-0---0-0---------7---6-5-3-0--||--0----------------|


  W                   W                   W                   W                 
-------------------|-------------------|-------------------|-------------------|
-------------------|-------------------|-------------------|-------------------|
-------------------|-------------------|-------------------|-------------------|
-------------------|-------------------|-------------------|-------------------|
--L----------------|-------------------|-------------------|-------------------|
--L----------------|-------------------|-------------------|-------------------|


  W                   W                   W                 
-------------------|-------------------|-------------------|
-------------------|-------------------|-------------------|
-------------------|-------------------|-------------------|
-------------------|-------------------|-------------------|
-------------------|-------------------|-------------------|
-------------------|-------------------|-------------------|


  H.           S  S  E     H.           S   S E     H.           S  S E   
------------------------|------------------------|-----------------------|
------------------------|------------------------|-----------------------|
------------------------|------------------------|-----------------------|
------------------------|------------------------|-----------------------|
---------------7h-9-10--|--9------------9h-10-9--|--7------------5h-7-7--|
--0---------------------|------------------------|-----------------------|


  S  E.  Q    Q    E  S  S    S  E.  Q    E  E   E   E   
---------------------------|----------------------------|
---------------------------|----------------------------|
---------------------------|-----------------9--11--12--|
---------------------------|-----------------x---x---x--|
--7p-5---L---------0--5p-2-|--5h-7---L----L--7---9--10--|
---------------------------|----------------------------|


  H         E   E   E  E     S  E.  H         E   E      H        Q.     S  S  
--------------------------|--------------------------|------------------------|
--------------------------|--------------------------|------------------------|
--7--------14--12--11--7--|--7s-9---L--------11--12--|--11--------7-----------|
--x---------x---x---x--x--|--x--x-------------x---x--|---x--------x-----------|
--5--------12--10---9--5--|--5s-7---L---------9--10--|---9--------5------5p-2-|
--------------------------|--------------------------|------------------------|


  S  E.  H        E   S   S     E   S S H        E  E   
----------------------------|--------------------------|
----------------------------|--------------------------|
--7s-9---L-----------11s-12-|--11--11------------------|
--x--x----------------x---x-|---x---x------------------|
--5s-7---L--------x---9s-10-|---9---9-5-0--------L--5--|
----------------------------|--------------------------|


                                                           |--3--|   
  S  E.  H        E  S  S    S  S  S  S  S E  T  T S S S S E  E  E   
--------------------------|-----------------------------------------|
--------------------------|-----------------------------------------|
--------------------------|-----------------------------------------|
---------------------5p-4-|--5p-4h-5p-4h-5-7--7h-L-9-9-9-9-9--9--9--|
--5h-7---L--------L-------|-----------------------------------------|
--------------------------|-----------------------------------------|


  H.           E  E     S  E  S H        E  S  S    S  E  S H        E  S  S  
---------------------|---------------------------|---------------------------|
---------------------|---------------------------|---------------------------|
---------------------|---------------------------|---------------------------|
--9------------7--5--|--4h-5--4------------------|---------------------------|
---------------------|----------5--------L--3p-2-|--2h-3--2-L--------L--2h-3-|
---------------------|---------------------------|---------------------------|


  E.  S H        E  S S    H        E  E  E  S  S  
------------------------|-------------------------|
------------------------|-------------------------|
------------------------|-------------------------|
------------------------|-----------------4--4h-5-|
--2---0-0--------L--0-0-|--7--------L--7----------|
------------------------|-------------------------|


               |--3--|                                    
  Q.     E  E  S  S  S  E  E       H        E  E  E   E   
------------------------------|--------------------------|
------------------------------|--------------------------|
------------------------------|--------------------------|
------------7--5h-7p-5p-4-----|--------------------------|
--5------------------------5--|--5g7--------L--7--9--10--|
---------5--------------------|--------------------------|


  H         E  E  E  E       H         S   S  S  S  S  S  S  S  
------------------------|--------------------------------------|
------------------------|--------------------------------------|
------------------------|--------------------------------------|
---------------7--9--7--|--7g9--------12h-14-14-14-14-14-14-14-|
--9--------10-----------|--------------------------------------|
------------------------|--------------------------------------|


   E   E   E   E   S   S  S  S  S   S  S  S  
--------------------------------------------|
--------------------------------------------|
-------------------------12-----------12-14-|
--14--12--12--12--12h-14----14-12h-14-------|
--------------------------------------------|
--------------------------------------------|


   Q.       E    E    E    E.    T   T     H.            E   S  S  
---------------------------------------|--------------------------|
---------------------------------------|--------------------15-15-|
--14b------14b--14b--14b--14br---Lh-12-|--14~------------L--------|
---------------------------------------|--------------------------|
---------------------------------------|--------------------------|
---------------------------------------|--------------------------|


                                 |----3----|    
   S  E.  E   S   S  S  E    S   E    E    E    
-----------------------------------------------|
--15b-L---L--15b-15b-L-15b--15b-15b--15b--15b--|
-----------------------------------------------|
-----------------------------------------------|
-----------------------------------------------|
-----------------------------------------------|


   Q      E   S  S Q.      S   S     H         T   T   Q    S  S  S  
---------------------------------|----------------------------------|
--15br----L--15-15-L------15p-12-|--15--------12h-15p-12----L-------|
---------------------------------|----------------------------14-12-|
---------------------------------|----------------------------------|
---------------------------------|----------------------------------|
---------------------------------|----------------------------------|


                         |---3---|          
   Q.      T   T   T   T E   E   E  E  S S  
-------------------------------------------|
-------------------------------------------|
--14------12h-14p-12p-11-L-------------7-7-|
----------------------------12-------------|
--------------------------------12---------|
-------------------------------------------|


  S  E.   S   S   E   S   S   S  S  S   S  S  S  
------------------------------------------------|
------------------------------------------------|
--7h-9---12p-11h-12--12p-11h-12-11-12p-11-12-14-|
------------------------------------------------|
------------------------------------------------|
------------------------------------------------|


  S  S  S  S  S  S  S  S  S  S  S  S  S  S  S S  
------------------------------------------------|
-------12-13----12-13-15-13----12---------------|
----14-------14-------------14----12-14-11-12-9-|
------------------------------------------------|
------------------------------------------------|
------------------------------------------------|


   S S S S Q     Q     S  S S  S    H.            Q     
---------------------------------|---------------------|
---------------------------------|---------------------|
--11-7-9---9~----9~--------------|---------------------|
-----------------------7h-9-7----|---------------------|
------------------------------10-|--9~-----------------|
---------------------------------|---------------------|


  Q    Q     Q    S   S S S    H.            E  S S  
----------------------------|-----------------------|
----------------------------|-----------------------|
----------------------------|-----------------------|
-------7b----L----7br-L-5-7-|--7~---------------5-7-|
----------------------------|-----------------------|
----------------------------|-----------------------|


  E   Q.     E  E   E   E      Q     S E.  Q.     S S  
----------------------------|-------------------------|
----------------------------|-------------------------|
----------------------------|-------------------------|
--7b--L------L--7b--7b--7b--|--7b----7-7---L------x-x-|
----------------------------|-------------------------|
----------------------------|-------------------------|


   Q     Q    Q    E   E       Q.      S  S  S  S  S  S  S  S  S  S  
----------------------------|---------------12----------------------|
--15b-----------------15br--|--L---------------15-15-12----12-------|
----------------------------|---------14b-L-------------14----12----|
----------------------------|------------------------------------14-|
----------------------------|---------------------------------------|
----------------------------|---------------------------------------|


   H          S   S  S  S  S   S  S   S  
----------------------------------------|
----------------------------------------|
--12~--------11h-12----11---------------|
--------------------14----12h-14-10h-12-|
----------------------------------------|
----------------------------------------|


                        |--3-|                    
  S  S  S S  S  S  S S  S  S S  S   S S   S  S S  
-------------------------------------------------|
-------------------------------------------------|
-------------------------------------------------|
--9-10----9--------------------------------------|
-------12---10-12-10-9-10----9--------9h-10-12-9-|
--------------------------12---10h-12------------|


                             |------5-----|  
  S  E.   E  S   S  E.   S   S   S  S  S  S  
--------------------------------------------|
--------------------------------------------|
--------------------------------------------|
-----------------------------------10-12-14-|
--9-10~---L--9h-10-10---10h-12h-14----------|
--------------------------------------------|


            |---3---|  |---6---|  |---6---|   |-----5-----|  
   Q.       S   S   S  S   S   S  S   S   S   S  S  S  S  S  
---------------------------------12h-14h-15s-17-17-17-17-17-|
----------------------12h-13h-15----------------------------|
--11~------11h-12h-14---------------------------------------|
------------------------------------------------------------|
------------------------------------------------------------|
------------------------------------------------------------|


                                          |---3---|                         
   Q       Q    Q     Q         Q.        S   S   S E   S   S  S   S   S S  
--17br~--------------17b----|--17b~------15h-17p-15-L--14h-15-15p-14p-12---|
----------------------------|----------------------------------------------|
----------------------------|----------------------------------------------|
----------------------------|----------------------------------------------|
----------------------------|----------------------------------------------|
----------------------------|----------------------------------------------|


                       tr            
            |---3---|                
   Q.       S   S   S  H             
--12h------15p-12h-15-12(15)--------|
------------------------------------|
------------------------------------|
------------------------------------|
------------------------------------|
------------------------------------|


   T   T   T   T   E  Q    E   E  E   S  S  
--15p-12h-15p-12h-12--L----L\--------------|
-------------------------------------------|
----------------------------------------12-|
-------------------------------------12----|
-------------------------------------------|
-------------------------------------------|


   S   E    T   T   T   T   E.  E   E   S   S  S   S  
-----------------------------------------------------|
-----------------------------------------------------|
--12h-14h--16p-14p-12h-14p-12---L--------------------|
-----------------------------------12--12h-14--------|
----------------------------------------------12h-14-|
-----------------------------------------------------|


   E   S   S  S  S S   S S  S Q     E      E    E  Q    Q     E.    T   T  
---------------------------------------|----------------------------------|
---------------------------------------|--12---12-------------------------|
---------------------------------------|--12b--12------------14br---Lh-12-|
---------------------------------------|----------------------------------|
--10--12h-14-10p-9-9h-10-7h-9-5~-------|----------------------------------|
---------------------------------------|----------------------------------|


                                                          |--3--|   
   H          E  E   S   S  S   S    E  E  E.   T  T Q    E  E  E   
----------------------------------|--------------------------------|
----------------------------------|--------------------------------|
-------------12-----12------------|--------------------------------|
--14~---------------12h-14--------|--5--7--7b---Lh-5---------------|
---------------------------12p-10-|------------------7----x--------|
----------------------------------|-----------------------------x--|


  E  E   H          E   S   S     S S  E    H        E   S   S   
-----------------------12h-15-|--17---17b~--L--------L--15h-17h-|
--------15b~--------L---------|---------------------------------|
------------------------------|---------------------------------|
------------------------------|---------------------------------|
------------------------------|---------------------------------|
--x--x------------------------|---------------------------------|


   S S  E   H         E    S T  T        H          S   S  S  S  S   S  S   S  
--19---19b--L--------19br--L-L-19-|--17g19~--------15h-17----15---------------|
----------------------------------|-----------------------19----17h-19-15h-17-|
----------------------------------|-------------------------------------------|
----------------------------------|-------------------------------------------|
----------------------------------|-------------------------------------------|
----------------------------------|-------------------------------------------|


   |----3---|                                                             
   E   E    E   S  E   S  T  T  T  T  T  T  T  T  T  T  T  T  T  T  T  T  
-------------------------------------------------------------------------|
--19--19b--19b--L-19--17-19-17-15-19-17-15-------15----------------------|
-------------------------------------------17-16----17-16-14-17-16-14-12-|
-------------------------------------------------------------------------|
-------------------------------------------------------------------------|
-------------------------------------------------------------------------|


   T   T   T  T S  T  T  E  S T  T  S  S  S   S  S  S   S  S  
-------------------------------------------------------------|
-------------------------------------------------------------|
--11h-12h-14b-L-L-14-12--------------------------------------|
------------------------14--L-L-14-12------------------------|
--------------------------------------14-12p-10p-9-10h-12-10-|
-------------------------------------------------------------|


  S   S E   E.   T  T  E.   S Q      
------------------------------------|
------------------------------------|
------------------------------------|
------------------------------------|
--9h-10-9~--L---10p-9------10-9~----|
----------------------10------------|


         PM PM      PM  PM      PMPM      PM            PM                 
     E   S  S  S  S S   S S  S  S S  S  S S  S    S  E  S  Q     H         
-----------------------------------------------|--------------------------|
-----------------------------------------------|--------------------------|
-----------------------------------------------|--------------------------|
-----------------------------------------------|--------------------------|
--9g10--10-10-10p-9-7--10-9p-7-10-7--7p-5----5-|--5h-7--5--5~-------------|
------------------------------------------7----|--------------------------|


    W                   Q     Q    H         3x  Q    Q    S S S S E  E   
|--------------------|-----------------------||--------------------------|
|--------------------|-----------------------||--------------------------|
|*-------------------|----------------------*||--------------------------|
|*-------------------|--7\------------------*||--7----7----7-7-7-7-7-----|
|--------------------|--5\-------------------||--5----5----5-5-5-5-5-----|
|--------------------|-----------------------||--------------------------|


  S  S S S Q    E  E  E  E     H         E  E  E  E   
----------------------------|------------------------|
----------------------------|------------------------|
----------------------------|------------------------|
--7p-5----------------4--5--|------------7--5--4--4--|
-----------7----L--7--------|--5~--------------------|
---------7------------------|------------------------|


  Q     Q     Q     E  E     Q     E  E  S  S E   E  S S  
--------------------------|------------------------------|
--------------------------|------------------------------|
--------------------------|------------------------------|
--5~----5~----5~----7--9--|--7~----7--7--7h-9-7~--L----5-|
--------------------------|------------------------------|
--------------------------|------------------------------|


   Q      Q      Q      S   S  S  S     Q      Q      Q      S   S  S   S  
------------------------------12----|---------------------------12-----12-|
---------------------------12----12-|--15b----15b----15b----15b----15b----|
--14b----14b----14b----14b----------|-------------------------------------|
------------------------------------|-------------------------------------|
------------------------------------|-------------------------------------|
------------------------------------|-------------------------------------|


   S   S  S   S  S   S  S   S  S   S  S   S  S   S  S   S  
------12-----12-----12-----12-----12-----12-----12-----12-|
--15b----15b----15b----15b----15b----15b----15b----15b----|
----------------------------------------------------------|
----------------------------------------------------------|
----------------------------------------------------------|
----------------------------------------------------------|


   E.    S  E.   S  E.    S  E.    S  
--15b---15~-L---17-17br---L-17b---17-|
-------------------------------------|
-------------------------------------|
-------------------------------------|
-------------------------------------|
-------------------------------------|


   Q      Q      S    S  S  S  T   T   T   T   S  S  
--17b----17b----17br--L-15-17-15h-17p-15p-14h-15-14-|
----------------------------------------------------|
----------------------------------------------------|
----------------------------------------------------|
----------------------------------------------------|
----------------------------------------------------|


   T  T  T  T  T  T  T  T  T  T  T  T  T  T  T  T  T  T  T T  T  T T  T  T T  T 
-----12-------12----------------------------------------------------------------
--15----13-15----13-12-15-13-12-10-13-12-10-------10----------------------------
--------------------------------------------11-11----12-11-9-12-11-9----11-9----
---------------------------------------------------------------------12------12-
--------------------------------------------------------------------------------
--------------------------------------------------------------------------------


         |--6-|  |--6--|                                         
  E   E  S S  S  S  S  S  H            Q.      S S S  E.   Q     
------------------------------------|---------------------------|
------------------------------------|---------------------------|
--9b--L--L-9b-9b-9b-9b-9b-9b--------|--9b------L-7---11~--------|
------------------------------------|---------------------------|
------------------------------------|---------------------------|
------------------------------------|---------------------------|


    Q    S S S S Q    S S S S    Q    S  S S  S S S S S S  S S S    
|-----------------------------|-----------------------------------||
|-----------------------------|---------12------------------------||
|*--9----L-9---7-L----L-7---9-|--9----L-12---11------------------*||
|*--9----L-9---7-L----L-7---9-|--9----L------12---4-4-4-4s-7-7-7-*||
|-----------------------------|-------------------2-2-2-2s-5-5-5--||
|-----------------------------|-----------------------------------||


  Q    S S S S Q    S S S S    Q    S S S S S S S S S  S S S  
----------------------------|--------------------------------|
----------------------------|--------------------------------|
--9----L-9---7-L----7-7---5-|--L----L-5---7------------------|
--9----L-9---7-L----7-7---5-|--L----L-5---7---4-4-4-4s-7-7-7-|
----------------------------|-----------------2-2-2-2s-5-5-5-|
----------------------------|--------------------------------|


  Q    S S S S Q    S S S S    Q    S  S S  S S S S S S  S S S  
----------------------------|----------------------------------|
----------------------------|---------12-----------------------|
--9----L-9---7-L----L-7---9-|--9----L-12---11------------------|
--9----L-9---7-L----L-7---9-|--9----L------12---4-4-4-4s-7-7-7-|
----------------------------|-------------------2-2-2-2s-5-5-5-|
----------------------------|----------------------------------|


      PM PM   PM PM       PM PM   PM PM      
    S S  S  S S  S  S S S S  S  S S  S  S S  
|-------------------------------------------|
|-------------------------------------------|
|*------------------------------------------|
|*--9-------9-------9-9-8-------8-------8-8-|
|---7-------7-------7-7-7-------7-------7-7-|
|-----0--0----0--0--------0--0----0--0------|


    PM PM   PM PM        PM PM    PM PM        
  S S  S  S S  S  S S  S S  S   S S  S   S  S  
----------------------------------------------|
----------------------------------------------|
----------------------------------------------|
--9-------9-------9-9-10-------10-------10-10-|
--7-------7-------7-7--7--------7--------7--7-|
----0--0----0--0---------0--0-----0--0--------|


    PM PM   PM PM       PM PM   PM PM      
  S S  S  S S  S  S S S S  S  S S  S  S S  
------------------------------------------|
------------------------------------------|
------------------------------------------|
--9-------9-------9-9-8-------8-------8-8-|
--7-------7-------7-7-7-------7-------7-7-|
----0--0----0--0--------0--0----0--0------|


    PM PM   PM PM                           PM PM   PM PM                     
  S S  S  S S  S  S S S S S S S S E       S S  S  S S  S  S S S S S S E   E   
--------------------------------------||-------------------------------------|
--------------------------------------||-------------------------------------|
-------------------------------------*||-------------------------------------|
--9-------9-------9---7-9-9-7-9------*||--9-------9-------9---7-9-9-7-9\-----|
--7-------7-------7---5-7-7-5-7---9---||--7-------7-------7---5-7-7-5-7\-----|
----0--0----0--0------------------7---||----0--0----0--0---------------------|


  H        S S S S S S S S    H        S S S S E   E   
---------------------------|--------------------------|
---------------------------|--------------------------|
---------------------------|--------------------------|
-----------7-9-9-7-9---9-7-|--L--------7-9-9-7-9\-----|
-----------5-7-7-5-7---7-5-|--L--------5-7-7-5-7\-----|
---------------------------|--------------------------|


  H        S S S S S S S S    H         
---------------------------|-----------|
---------------------------|-----------|
---------------------------|-----------|
-----------7-9-9-7-9---9-7-|--L--------|
-----------5-7-7-5-7---7-5-|--L--------|
---------------------------|-----------|


      PM PM   PM PM       PM PM   PM PM      
    S S  S  S S  S  S S S S  S  S S  S  S S  
|-------------------------------------------|
|-------------------------------------------|
|*------------------------------------------|
|*--9-------9-------9-9-8-------8-------8-8-|
|---7-------7-------7-7-7-------7-------7-7-|
|-----0--0----0--0--------0--0----0--0------|


    PM PM   PM PM                     
  S S  S  S S  S  S S S S S S S S E   
-------------------------------------|
-------------------------------------|
-------------------------------------|
--9-------9-------9---7-9-9-7-9------|
--7-------7-------7---5-7-7-5-7---9--|
----0--0----0--0------------------7--|


    PM PM   PM PM       PM PM   PM PM      
  S S  S  S S  S  S S S S  S  S S  S  S S  
------------------------------------------|
------------------------------------------|
------------------------------------------|
--9-------9-------9-9-8-------8-------8-8-|
--7-------7-------7-7-7-------7-------7-7-|
----0--0----0--0--------0--0----0--0------|


    PM PM   PM PM                                            
  S S  S  S S  S  S S S S S S Q          H        Q    Q     
------------------------------------||----------------------|
------------------------------------||----------------------|
-----------------------------------*||*---------------------|
--9-------9-------9---7-9-9-7-9----*||*--9-------------9----|
--7-------7-------7---5-7-7-5-7-----||---7--------9----7----|
----0--0----0--0--------------------||---0--------7---------|


                                          PM PM                          
  H        E  E  E  E     H        Q.     S  S     H        Q    E  S S  
-----------------------|------------------------|-----------------------|
-----------------------|------------------------|-----------------------|
-----------------------|------------------------|-----------------------|
--7--------7--7--9--7--|--5--------4------------|-----------------------|
--5--------5--5--7--5--|--3--------2------------|--2--------L----L------|
-----------------------|------------------3--2--|--0--------L----L--0-0-|


                                                                PM PM  
  H        Q    Q       H        E  E  E  E     H        Q.     S  S   
---------------------|-----------------------|------------------------|
---------------------|-----------------------|------------------------|
---------------------|-----------------------|------------------------|
--9-------------9----|--7--------7--7--9--7--|--5--------4------------|
--7--------9----7----|--5--------5--5--7--5--|--3--------2------------|
--0--------7---------|-----------------------|------------------3--2--|


  H        Q    E  S S    Q    Q    S S S S S S S S    Q    Q     
-----------------------|----------------------------|------------|
-----------------------|----------------------------|------------|
-----------------------|----------------------------|------------|
-----------------------|--9----7----7-9-9-7-9-------|--9----7----|
--2--------L----L------|--7----5----5-7-7-5-7---9---|--7----5----|
--0--------L----L--0-0-|------------------------7---|------------|


  W                   W                   W                   W                 
-------------------|-------------------|-------------------|-------------------|
-------------------|-------------------|-------------------|-------------------|
-------------------|-------------------|-------------------|-------------------|
--5----------------|--L----------------|--9----------------|--L----------------|
--3----------------|--L----------------|--7----------------|--L----------------|
-------------------|-------------------|--0----------------|--L----------------|


  W                   W                   W                   W                 
-------------------|-------------------|-------------------|-------------------|
-------------------|-------------------|-------------------|-------------------|
-------------------|-------------------|-------------------|-------------------|
--L----------------|--L----------------|--L----------------|--L----------------|
--L----------------|--L----------------|--L----------------|--L----------------|
--L----------------|--L----------------|--L----------------|--L----------------|


  W                   W                     W                 
-------------------|-------------------||--------------------|
-------------------|-------------------||--------------------|
-------------------|-------------------||*-------------------|
--L----------------|--L----------------||*-------------------|
--L----------------|--L----------------||--------------------|
--L----------------|--L----------------||--------------------|


  W                   W                   H.           Q     3x
-------------------|-------------------|---------------------||
-------------------|-------------------|---------------------||
-------------------|-------------------|--------------------*||
-------------------|-------------------|--------------------*||
-------------------|-------------------|---------------------||
-------------------|--0----------------|--L------------------||


  W                   W                    W                   
-------------------|-------------------|--20b~----------------|
-------------------|-------------------|----------------------|
-------------------|-------------------|----------------------|
-------------------|-------------------|----------------------|
-------------------|-------------------|----------------------|
-------------------|-------------------|----------------------|


  H.           E   S   S   
--L------------L--12h-16p-|
--------------------------|
--------------------------|
--------------------------|
--------------------------|
--------------------------|


       |---3--|   |------5------|                |-------5------|   
   E   S  S   S   S  S  S   S   S  S  S   S   S  S  S   S   S   S   
--12-----12h-16p-12----12h-16p-12----12h-16p-12----12h-16p-12h-16p-|
------15------------15------------15------------15-----------------|
-------------------------------------------------------------------|
-------------------------------------------------------------------|
-------------------------------------------------------------------|
-------------------------------------------------------------------|


   E.   S  S   S  S   S  H              H           Q      Q      
--12---12-16p-12--------------------|----------------------------|
-----------------15p-12-15b~--------|--15br----------------------|
------------------------------------|--------------14~----13~----|
------------------------------------|----------------------------|
------------------------------------|----------------------------|
------------------------------------|----------------------------|


   Q     E.    S  Q     E  S   S  
---------------------------------|
---------------------------------|
--14b----Lh---13-----------------|
-----------------14~----L--Lh-12-|
---------------------------------|
---------------------------------|


                                          \1   \1 
   S   S  S   S  S   S  S  S  S  S  S  S  E.   S  
-------------------------------------------------|
-------------------------------------------------|
-------------------------------------------------|
--14p-12---------------------------------12---12-|
---------14p-12-10h-12-14-12-11-12-12-14---------|
-------------------------------------------------|


   \1  \1  \1  \1  \1  \1  \1           
   |---3---|   |---3---|                
   E   E   E   E   E   E   Q    E.   S  
---------------------------------------|
---------------------------------------|
---------------------------------------|
--12--12--12--12--12--12--12----9p---7-|
---------------------------------------|
---------------------------------------|


             |--3--|  |--3--|  |--3--|                             |---3--|   
  S  S  S  S E  E  E  E  E  E  E  E  E     S S S S S S S S S S S S E  E   E   
----------------------------------------|------------------------------------|
----------------------------------------|------------------------------------|
----------------------------------------|------------------------------------|
--9p-6h-7p-6----6--7--6--------6--7--6--|--6-6-9-6-6-6-9-6-6-6-9-6-6--9--12--|
-------------7-----------7--7-----------|------------------------------------|
----------------------------------------|------------------------------------|


   |---3---|   |---3---|   |---3---|   |---3---|   
   E   E   E   E   E   E   E   E   E   E   E   E   
--------------------------------------------------|
--------------------------------------------------|
--------------------------------------------------|
--14--14--14--14--14--14--14--14--14--14--14--14--|
--------------------------------------------------|
--------------------------------------------------|


   |---3---|   |---3---|   |---3---|   |---3---|   
   E   E   E   E   E   E   E   E   E   E   E   E   
--------------------------------------------------|
--------------------------15----------15------15--|
--13------13--14--13--14--14--13--13--13--13--13--|
------14------------------------------------------|
--------------------------------------------------|
--------------------------------------------------|


   |---3---|   |---3---|   |---3---|   |---3---|   
   E   E   E   E   E   E   E   E   E   E   E   E   
--------------------------------------------------|
--15--15----------15--15----------15--15----------|
--13--13--14--14--13--13--14--14----------14--14--|
--------------------------------------------------|
--------------------------------------------------|
--------------------------------------------------|


   |---3---|                                 
   E   E   E   Q     S  S  S  S  S  S  S  S  
--------------------16----16----16----16----|
--15----------15-------15----15----15----15-|
------14--14--14----------------------------|
--------------------------------------------|
--------------------------------------------|
--------------------------------------------|


   Q     S  S  S  S  Q.        S  S     Q.       S S  Q    E.    S  
--17----17-17-17-17-17b~------17-19-|--19br------L-L---------------|
------------------------------------|----------------17----L\---10-|
------------------------------------|------------------------------|
------------------------------------|------------------------------|
------------------------------------|------------------------------|
------------------------------------|------------------------------|


   |---3--|  |---3--|  |---3--|  |--3--|     |--3--|  |--3--|             
   E   E  E  E  E   E  E   E  E  E  E  E     E  E  E  E  E  E  H          
------------------------------------------|------------------------------|
--10p--9-----9----------------------------|------------------------------|
----------9-----9p--7--9p--7-----7--------|------------------------------|
------------------------------9-----9--7--|--9--7--6--7--6---------------|
------------------------------------------|-----------------7--5~--------|
------------------------------------------|------------------------------|


                                         \2        
             |----3----|                           
  E  Q    E  Q    Q    Q       E  Q.     H         
----------------------------|---------------------|
----------------------------|---------------------|
----------------------------|---------------------|
----------------------------|---------------------|
--5--4----2--4----2----0----|--0--2---------------|
----------------------------|------------0--------|


    PM PM PM PM PM PM PM PM PM PM PM PM  
    |--3--|  |--3--|  |--3--|  |--3--|   
    E  E  E  E  E  E  E  E  E  E  E  E   
|---------------------------------------|
|---------------------------------------|
|*--------------------------------------|
|*--------------------------------------|
|---8--7--7--7--7--7--8--7--7--7--7--7--|
|---------------------------------------|


  PM PM PM  PM PM PM PM PM PM PM PM PM    PM PM PM PM PM PM PM PM PM PM PM PM  
  |--3--|   |--3--|  |--3--|  |--3--|     |--3--|  |--3--|  |--3--|  |--3--|   
  E  E  E   E  E  E  E  E  E  E  E  E     E  E  E  E  E  E  E  E  E  E  E  E   
---------------------------------------|--------------------------------------|
---------------------------------------|--------------------------------------|
---------------------------------------|--------------------------------------|
---------------------------------------|--------------------------------------|
--8--7--7--10--7--7--8--7--7--7--7--7--|--8--7--5--7--5--3--5--3--2--3--2--0--|
---------------------------------------|--------------------------------------|


          PM PM PM         PM PM PM           PM PM PM       PM PM PM  
  |--3-|  |--3--|  |--3-|  |--3--|            |--3--|        |--3--|   
  Q    E  E  E  E  Q    E  E  E  E   4x  Q    E  E  E   Q    E  E  E   
-------------------------------------||-------------------------------|
-------------------------------------||-------------------------------|
------------------------------------*||-------------------------------|
--5----5-----------7----7-----------*||--9-------------10-------------|
--3----3--3--3--3--5----5--5--5--5---||--7--------------7-------------|
-------------------------------------||-------0--0--0--------0--0--0--|


                                                 PM PM PM       PM PM PM  
        |--3--|   |---3---|   |---3---|          |--3--|        |--3--|   
  Q     E  E  E   E   E   E   E   E   E     Q    E  E  E   Q    E  E  E   
-----------------------------------------|-------------------------------|
-----------------------------------------|-------------------------------|
-----------------------------------------|-------------------------------|
--9--------------10p--9p--7--------------|--9-------------10-------------|
--7~-------------------------10p--9p--7--|--7--------------7-------------|
--------0--0--0--------------------------|-------0--0--0--------0--0--0--|


        |--3--|   |---3---|   |---3---|          |--3--|       |--3--|   
  Q     E  E  E   E   E   E   E   E   E     Q    E  E  E  Q    E  E  E   
-----------------------------------------|------------------------------|
-----------------------------------------|------------------------------|
-----------------------------------------|------------------------------|
--9--------------10p--9p--7--------------|--7-------------9-------------|
--7~-------------------------10p--9p--7--|--5----5--5--5--5----5--5--5--|
--------0--0--0--------------------------|------------------------------|


   |---3---|   |---3---|   |---3--|  |--3--|          |--3--|        |--3--|   
   E   E   E   E   E   E   E  E   E  E  E  E     Q    E  E  E   Q    E  E  E   
----------------------------------------------|-------------------------------|
----------------------------------------------|-------------------------------|
----------------------------------------------|-------------------------------|
----------------------------------------------|--9-------------10-------------|
--12--12--12--12--12--12--12-----10-----9-----|--7--------------7-------------|
----------------------------------------------|-------0--0--0--------0--0--0--|


   |---3---|  |---3---|  |---3---|   |---3---|   
   E   E   E  E   E   E  E   E   E   E   E   E   
------------------------------------------------|
------------------------------------------------|
------------------------------------------------|
--10p--9p--7--9p--7------7----------------------|
---------------------10-----10p--9--10p--9p--7--|
------------------------------------------------|


    PM PM PM PM PM PM PM PM PM PM PM PM  
    |--3--|  |--3--|  |--3--|  |--3--|   
    E  E  E  E  E  E  E  E  E  E  E  E   
|---------------------------------------|
|---------------------------------------|
|*--------------------------------------|
|*--------------------------------------|
|---8--7--7--7--7--7--8--7--7--7--7--7--|
|---------------------------------------|


  PM PM PM  PM PM PM PM PM PM PM PM PM    PM PM PM PM PM PM PM PM PM PM PM PM  
  |--3--|   |--3--|  |--3--|  |--3--|     |--3--|  |--3--|  |--3--|  |--3--|   
  E  E  E   E  E  E  E  E  E  E  E  E     E  E  E  E  E  E  E  E  E  E  E  E   
---------------------------------------|--------------------------------------|
---------------------------------------|--------------------------------------|
---------------------------------------|--------------------------------------|
---------------------------------------|--------------------------------------|
--8--7--7--10--7--7--8--7--7--7--7--7--|--8--7--5--7--5--3--5--3--2--3--2--0--|
---------------------------------------|--------------------------------------|


          PM PM PM         PM PM PM                                    
  |--3-|  |--3--|  |--3-|  |--3--|            |--3--|        |--3--|   
  Q    E  E  E  E  Q    E  E  E  E       Q    E  E  E   Q    E  E  E   
-------------------------------------||-------------------------------|
-------------------------------------||-------------------------------|
------------------------------------*||-------------------------------|
--5----5-----------7----7-----------*||--9-------------10-------------|
--3----3--3--3--3--5----5--5--5--5---||--7--------------7-------------|
-------------------------------------||-------0--0--0--------0--0--0--|


       |--3--|        |--3--|                                
  Q    E  E  E   Q    E  E  E     E  E   E  E  E  E   E  E   
-------------------------------|----------------------------|
-------------------------------|----------------------------|
-------------------------------|----------------------------|
--9-------------10-------------|--9-----10-----9-----10-----|
--7--------------7-------------|--7------7-----7------7-----|
-------0--0--0--------0--0--0--|----------------------------|


  E  E   E  E  E  E   E  E     E   E  E   E  E   E  E   E   
----------------------------|------------------------------|
----------------------------|------------------------------|
----------------------------|------------------------------|
--9-----10-----9-----10-----|--9--10--9--10--9--10--9--10--|
--7------7-----7------7-----|--7---7--7---7--7---7--7---7--|
----------------------------|------------------------------|


   E   E   E   E   E   E   E   E      E   E   E   E   E   E   E   E   
----------------------------------|----------------------------------|
----------------------------------|----------------------------------|
----------------------------------|----------------------------------|
--10--11--10--11--10--11--10--11--|--11--12--11--12--12--13--12--13--|
---8---8---8---8---8---8---8---8--|---9---9---9---9---9---9---9---9--|
----------------------------------|----------------------------------|


   E   E   E   E   E   E   E   E      E   E   E   E   E   E   E   E   
----------------------------------|----------------------------------|
----------------------------------|----------------------------------|
----------------------------------|----------------------------------|
--13--14--13--14--14--15--14--14--|--14--15--15--16--16--17--17--18--|
--11--11--11--11--12--12--12--12--|--12--12--13--13--14--14--15--15--|
----------------------------------|----------------------------------|


                                                         W                 
   E   E   E   E   E   E   E   E     W                   W                 
----------------------------------|-------------------|-------------------|
----------------------------------|-------------------|-------------------|
----------------------------------|-------------------|-------------------|
--18--19--19--20--20--21--21--22--|-------------------|-------------------|
--16--16--17--17--18--18--19--19--|-------------------|-------------------|
----------------------------------|--0----------------|--L----------------|


  W                   E  E  E  E  E  E  E  E     E  E  E  E  E  E  E  E   
-------------------|--------------------------|--------------------------|
-------------------|--------------------------|--------------------------|
-------------------|--------------------------|--------------------------|
-------------------|--------------------------|--------------------------|
-------------------|--7-----7-----7-----7-----|--7-----7-----7-----7-----|
--L----------------|-----7-----7-----7-----7--|-----7-----7-----7-----7--|


  E  E  E  E  E  E  E  E     E  E  E  E  E  E  E  E   
--------------------------|--------------------------|
--------------------------|--------------------------|
--------------------------|--------------------------|
--------------------------|--------------------------|
--5-----5-----5-----5-----|--5-----5-----5-----5-----|
-----5-----5-----5-----5--|-----5-----5-----5-----5--|


  E  E  E  E  E  E  E  E     E  E  E  E  E  E  E  E   
--------------------------|--------------------------|
--------------------------|--------------------------|
--------------------------|--------------------------|
--------------------------|--------------------------|
--7-----7-----7-----7-----|--7-----7-----7-----7-----|
-----7-----7-----7-----7--|-----7-----7-----7-----7--|


  E  E  E  E  E  E  E  E     E  E  E  E  E  E  E  E   
--------------------------|--------------------------|
--------------------------|--------------------------|
--------------------------|--------------------------|
--------------------------|--------------------------|
--5-----5-----5-----5-----|--5-----5-----5-----5-----|
-----5-----5-----5-----5--|-----5-----5-----5-----5--|


  E  E  E  E  E  E  E  E     E  E  E  E  E  E  E  E   
--------------------------|--------------------------|
--------------------------|--------------------------|
--------------------------|--------------------------|
--------------------------|--------------------------|
--7-----7-----7-----7-----|--7-----7-----7-----7-----|
-----7-----7-----7-----7--|-----7-----7-----7-----7--|


  E  E  E  E  E  E  E  E     E  E  E  E  E  E  E  E   
--------------------------|--------------------------|
--------------------------|--------------------------|
--------------------------|--------------------------|
--------------------------|--------------------------|
--5-----5-----5-----5-----|--5-----5-----5-----5-----|
-----5-----5-----5-----5--|-----5-----5-----5-----5--|


  E  E  E  E  E  E  E  E     E  E  E  E  E  E  E  E   
--------------------------|--------------------------|
--------------------------|--------------------------|
--------------------------|--------------------------|
--------------------------|--------------------------|
--7-----7-----7-----7-----|--7-----7-----7-----7-----|
-----7-----7-----7-----7--|-----7-----7-----7-----7--|


  E  E  E  E  E  E  E  E     W                  
--------------------------|--------------------|
--------------------------|--------------------|
--------------------------|--------------------|
--------------------------|--------------------|
--5-----5-----5-----5-----|--5~----------------|
-----5-----5-----5-----5--|--------------------|


  E  S S  E  S S  E   S  S  E  S S     E   S  S  E   S  S  E  S S  Q      
-----------------------------------|-------------------------------------|
-----------------------------------|-------------------------------------|
---------11------12--------11------|--14--------12--------11------12~----|
----------x-------x---------x------|---x---------x---------x-------x-----|
----------9--x-x-10---x--x--9--x-x-|--12---x--x-10---x--x--9--x-x-10~----|
--0--0-0---------------------------|-------------------------------------|


  E  S S  E  S S  E   S  S  E  S S     E   S  S  E   S  S  E  S S  Q      
-----------------------------------|-------------------------------------|
-----------------------------------|-------------------------------------|
---------11------12--------11------|--14--------12--------11------12~----|
----------x-------x---------x------|---x---------x---------x-------x-----|
----------9--x-x-10---x--x--9--x-x-|--12---x--x-10---x--x--9--x-x-10~----|
--0--0-0---------------------------|-------------------------------------|


  E  S S  E  S S  E   S  S  E  S S     E   S  S  E   S  S  E  S S E  S S  
-----------------------------------|-------------------------------------|
-----------------------------------|-------------------------------------|
---------11------12--------11------|--14--------12--------11------9------|
----------x-------x---------x------|---x---------x---------x------x------|
----------9--x-x-10---x--x--9--x-x-|--12---x--x-10---x--x--9--x-x-7--x-x-|
--0--0-0---------------------------|-------------------------------------|


  E  S S E  S S E  S S E  S S    S S  S S S S S S  S  S  S  S S S S S  
------------------------------|---------------------------------------|
------------------------------|---------------------------------------|
------------------------------|---------------------------------------|
--9--x-x-9--x-x-9--x-x-9--x-x-|--9-9-10-9-7-7-7-7---------------------|
------------------------------|-------------------10-10-10-10-9-9-9-9-|
------------------------------|---------------------------------------|


  E  S S  E  S S  E   S  S  E  S S     E   S  S  E   S  S  E  S S  Q      
-----------------------------------|-------------------------------------|
-----------------------------------|-------------------------------------|
---------11------12--------11------|--14--------12--------11------12~----|
----------x-------x---------x------|---x---------x---------x-------x-----|
----------9--x-x-10---x--x--9--x-x-|--12---x--x-10---x--x--9--x-x-10~----|
--0--0-0---------------------------|-------------------------------------|


  E  S S  E  S S  E   S  S  E  S S     E   S  S  E   S  S  E  S S  E   S  S  
-----------------------------------|----------------------------------------|
-----------------------------------|----------------------------------------|
---------11------12--------11------|--14--------12--------11------12--------|
----------x-------x---------x------|---x---------x---------x-------x--------|
----------9--x-x-10---x--x--9--x-x-|--12---x--x-10---x--x--9--x-x-10---x--x-|
--0--0-0---------------------------|----------------------------------------|


   E   S  S  E  S S  E   S  S  E   S  S     E   S  S  E   S  S  E  S S E  S S  
----------------------------------------|-------------------------------------|
----------------------------------------|-------------------------------------|
--12--------11------12--------14--------|--14--------12--------11------9------|
---x---------x-------x---------x--------|---x---------x---------x------x------|
--10---x--x--9--x-x-10---x--x-12---x--x-|--12---x--x-10---x--x--9--x-x-7--x-x-|
----------------------------------------|-------------------------------------|


  E  S S E  S S E  S S E  S S    S S  S S S S S S  S  S  S  S S S S S  
------------------------------|---------------------------------------|
------------------------------|---------------------------------------|
------------------------------|---------------------------------------|
--9--x-x-9--x-x-9--x-x-9--x-x-|--9-9--x-x-7-7-7-7---------------------|
------------------------------|-------------------10-10-10-10-9-9-9-9-|
------------------------------|---------------------------------------|


  S S S S S S S S S S S S S S S S    S S S S S S S S S S S S S S S S  
----------------------------------|----------------------------------|
----------------------------------|----------------------------------|
--9-9-9-9-9-9-9-9-9-9-9-9-9-9-9-9-|--9-9-9-9-9-9-9-9-9-9-9-9-9-9-9-9-|
----------------------------------|----------------------------------|
----------------------------------|----------------------------------|
----------------------------------|----------------------------------|


  S  S  S  S  S  S  S  S  S  S  S  S  S  S  S  S  
-------------------------------------------------|
-------------------------------------------------|
--9-11-11-11-11-11-11-11-11-11-11-11-11-11-11-11-|
-------------------------------------------------|
-------------------------------------------------|
-------------------------------------------------|


   S  S  S  S  S  S  S  S  S  S  S  S  S  S  S  S  
--------------------------------------------------|
--------------------------------------------------|
--11-11-11-11-11-11-11-11-11-11-11-11-11-11-11-11-|
--------------------------------------------------|
--------------------------------------------------|
--------------------------------------------------|


   S  S  S  S  S  S  S  S  S  S  S  S  S  S  S  S  
--------------------------------------------------|
--------------------------------------------------|
--11-12-12-12-12-12-12-12-12-12-12-12-12-12-12-12-|
--------------------------------------------------|
--------------------------------------------------|
--------------------------------------------------|


   S  S  S  S  S  S  S  S  S  S  S  S  S  S  S  S  
--------------------------------------------------|
--------------------------------------------------|
--12-12-12-12-12-12-12-12-12-12-12-12-12-12-11-12-|
--------------------------------------------------|
--------------------------------------------------|
--------------------------------------------------|


   S  S  S  S  S  S  S  S  S  S  S  S  S  S  S  S  
--------------------------------------------------|
--------------------------------------------------|
--14-14-14-14-14-14-14-14-14-14-14-14-14-14-14-14-|
--------------------------------------------------|
--------------------------------------------------|
--------------------------------------------------|


   S  S  S  S  S  S  S  S  S  S  S  S E  S S    E  S S E  S S E  S S E  S S  
---------------------------------------------|------------------------------|
---------------------------------------------|------------------------------|
--16-16-16-16-16-16-16-16-16-16-16-16--------|------------------------------|
---------------------------------------------|---------9------9------9------|
---------------------------------------------|---------7------7------7------|
--------------------------------------0--0-0-|--0--0-0-0--0-0-0--0-0-0--0-0-|


  E  S S  E  S S  E  S S  E  S S    E  S S E  S S E  S S E  S S  
---------------------------------|------------------------------|
---------------------------------|------------------------------|
---------------------------------|------------------------------|
--9-------9-------9-------9------|---------9------9------9------|
--7------10------10------10------|---------7------7------7------|
--0--0-0--0--0-0--0--0-0--0--0-0-|--0--0-0-0--0-0-0--0-0-0--0-0-|


  E  S S  E  S S  E  S S  E  S S    E  S S E  S S E  S S E  S S  
---------------------------------|------------------------------|
---------------------------------|------------------------------|
---------11------12------11------|--9------9------9------9------|
--9-------x-------x-------x------|--x------x------x------x------|
--7-------9------10-------9------|--7------7------7------7------|
--0--0-0--0--0-0--0--0-0--0--0-0-|--0--0-0-0--0-0-0--0-0-0--0-0-|


  E  S S  E  S S  E  S S E   S S    Q.      S S Q.      S S  
---------------------------------|--------------------------|
---------------------------------|--------------------------|
--9------11------12------9--12---|--------------------------|
--x-------x-------x------x---x---|--9~------9-9-9~------9-9-|
--7-------9------10------7--10---|--------------------------|
--0--0-0--0--0-0--0--0-0-0---0-0-|--------------------------|


  Q    Q     Q    Q       H        Q    Q       H        E  E  E  E   
-----------------------|---------------------|-----------------------|
-----------------------|---------------------|-----------------------|
-----------------------|---------------------|-----------------------|
--9----7---------------|--9-------------9----|--7--------7--7--9--7--|
------------10----9----|--7--------9----7----|--5--------5--5--7--5--|
-----------------------|--0--------7---------|-----------------------|


                  PM PM                                                    
  H        Q.     S  S     H        S S S S S S S S    H        Q    Q     
------------------------|---------------------------|---------------------|
------------------------|---------------------------|---------------------|
------------------------|---------------------------|---------------------|
--5--------4------------|---------------------------|--9-------------9----|
--3--------2------------|--2------------------------|--7--------9----7----|
------------------3--2--|--0--------0-0-0-0-0-0-0-0-|--0--------7---------|


                                           PM PM                          
  Q.     E  E  E  E  E     H        Q.     S  S     H        Q    E  S S  
------------------------|------------------------|-----------------------|
------------------------|------------------------|-----------------------|
------------------------|------------------------|-----------------------|
--7------7--7--7--9--7--|--5--------4------------|-----------------------|
--5------5--5--5--7--5--|--3--------2------------|--2--------L----L------|
------------------------|------------------3--2--|--0--------L----L--0-0-|


                                               TP      TP                
  Q    Q    S S S S E  E     Q    Q    S S S S Q       W                 
--------------------------|-------------------------|-------------------|
--------------------------|-------------------------|-------------------|
--------------------------|-------------------------|-------------------|
--9----7----7-9-9-7-9--4--|--5----7----7-9-9-7-9----|--9----------------|
--7----5----5-7-7-5-7--2--|--3----5----5-7-7-5-7----|--7----------------|
--------------------------|-------------------------|-------------------|


  W                   Q     Q    H                  
-------------------|----------------------|-------||
-------------------|----------------------|-------||
-------------------|----------------------|-------||
--9----------------|--9\------------------|-------||
--7----------------|--7\------------------|-------||
-------------------|--0\------------------|-------||




Duration Legend
---------------
W - whole
H - half
Q - quarter
E - 8th
S - 16th
T - 32nd
X - 64th
. - note dotted
|-n-|  - n-tuplets


Tablature Legend
----------------
L - tied note
x - dead note
g - grace note
(n) - ghost note
> - accentuded note
NH - natural harmonic
AH - artificial harmonic
TH - tapped harmonic
SH - semi harmonic
PH - pitch harmonic
h - hammer on
p - pull off
b - bend
br - bendRelease
pb - preBend
pbr - preBendRelease
brb - bendReleaseBend
\n/ - tremolo bar dip
\n - tremolo bar dive
-/n - tremolo bar Release up
/n\ - tremolo bar inverted dip
/n - tremolo bar return
-\n - tremolo bar Release down
S - shift slide
s - legato slide
/ -  slide into from below or out of upwards
\ -  slide into from above or out of downwards
~ - vibrato
W - wide vibrato
tr - trill
TP - tremolo picking
T - tapping
S - slap
P - pop
< - fade in
^ - brush up
v - brush down
comments
We did not receive enough feedback on this tab! Please rate:
print report bad tab
1 2 3 4 5
I want to post or [tab]
guest
You may want to rate the tab now too:
select rating
Please do not post tabs as comments. Select "correction" instead!