Oops, an error
Loading. Please wait.

Hold Your Ground Tab

ver1
ver1

Whole song

Interactive

More versions @911Tabs.com
114 views 1 this week
no commentswrite comment
1 2 3 4 5
please rate
Autoscroll
+/-
esc
set tempo
stop
Contributor
Difficulty
intermediate
Hey! There's an official Ultimate Guitar app which is ideal
for learning songs when you're away from computer. Get the app
WARNING: You are trying to view
                                    content from Ultimate-Guitar.com
                                    in an unauthorized application,
                                    which is prohibited.

                                    Please use an official Ultimate
                                    Guitar Tabs application for iPhone,
                                    iPad or Android to access legitimate
                                    chords, guitar, bass, and drum tabs
                                    from Ultimate-Guitar.com database.

                                    Type "ultimate guitar tabs" in Apple
                                    App Store's or Android Market's
                                    search to find the application.
   Hold Your Ground                                 


                                                                       Gamma Ray
Kai - guitare rythmique



         PM PM PM PM PM PM    PM PM PM PM PM PM  
      E  S  S  S  S  S  S  E  S  S  S  S  S  S   
E||---------------------------------------------|
B||---------------------------------------------|
G||*--------------------------------------------|
D||*--------------------------------------------|
A||---2--------------------2--------------------|
E||---0--0--0--0--0--0--0--0--0--0--0--0--0--0--|


     PM PM PM PM PM PM                    PM PM PM PM       PM PM PM PM        
  E  S  S  S  S  S  S  S S S S Q          S  S  S  S  E  E  S  S  S  S  E  E   
-------------------------------------||---------------------------------------|
-------------------------------------||---------------------------------------|
------------------------------------*||*--------------------------------------|
-----------------------4-4-4-4-4----*||*--------------1-----1--1--1--1--4--1--|
--2--------------------2-2-2-2-2-----||---3--3--3--3-----2--------------------|
--0--0--0--0--0--0--0----------------||---------------------------------------|


  PM PM PM PM       PM PM PM PM          PM PM PM PM       PM PM PM PM        
  S  S  S  S  Q     S  S  S  S  Q        S  S  S  S  E  E  S  S  S  S  E  E   
--------------------------------------|--------------------------------------|
--------------------------------------|--------------------------------------|
--------------------------------------|--------------------------------------|
--5--5--5--5--8~----------------1~----|--------------5-----5--5--5--5--8--5--|
--------------------1--1--1--1--------|--6--6--6--6-----6--------------------|
--------------------------------------|--------------------------------------|


  PM PM PM PM       PM PM PM PM                           
  S  S  S  S  Q     S  S  S  S  Q       W                 
-------------------------------------|-------------------|
-------------------------------------|-------------------|
--------------7~---------------------|-------------------|
--8--8--8--8-------------------------|-------------------|
--------------------5--5--5--5--5----|--L----------------|
--------------------------------3----|--L----------------|


        PM PM PM PM       PM PM PM PM          PM PM PM PM       PM PM PM PM  
  E  E  S  S  S  S  E  E  S  S  S  S     E  E  S  S  S  S  E  E  S  S  S  S   
--------------------------------------|--------------------------------------|
--------------------------------------|--------------------------------------|
--------------------------------------|--------------------------------------|
--------------------------------------|--------------------------------------|
--3--3--3--3--3--3--3--3--3--3--3--3--|--3--3--3--3--3--3--3--3--3--3--3--3--|
--------------------------------------|--------------------------------------|


  PM PM PM PM PM PM PM PM                PM PM PM PM PM PM PM PM              
  S  S  S  S  S  S  S  S  E  S S Q       S  S  S  S  S  S  S  S  E  S S Q     
--------------------------------------|--------------------------------------|
--------------------------------------|--------------------------------------|
--------------------------------------|--------------------------------------|
--------------------------5--x-x-5----|--------------------------5--x-x-5----|
--------------------------3--x-x-3----|--------------------------3--x-x-3----|
--3--3--3--3--3--3--3--3--------------|--3--3--3--3--3--3--3--3--------------|


        PM PM PM PM       PM PM PM PM          PM PM PM PM       PM PM PM PM  
  E  E  S  S  S  S  E  E  S  S  S  S     E  E  S  S  S  S  E  E  S  S  S  S   
--------------------------------------|--------------------------------------|
--------------------------------------|--------------------------------------|
--------------------------------------|--------------------------------------|
--------------------------------------|--------------------------------------|
--3--3--3--3--3--3--3--3--3--3--3--3--|--3--3--3--3--3--3--3--3--3--3--3--3--|
--------------------------------------|--------------------------------------|


  PM PM PM PM PM PM PM PM                PM PM PM PM PM PM PM PM              
  S  S  S  S  S  S  S  S  E  S S Q       S  S  S  S  S  S  S  S  E  S S Q     
--------------------------------------|--------------------------------------|
--------------------------------------|--------------------------------------|
--------------------------------------|--------------------------------------|
--------------------------5--x-x-5----|--------------------------5--x-x-5----|
--------------------------3--x-x-3----|--------------------------3--x-x-3----|
--3--3--3--3--3--3--3--3--------------|--3--3--3--3--3--3--3--3--------------|


  PM PM PM PM PM PM PM PM PM PM PM PM PM PM PM PM  
  S  S  S  S  S  S  S  S  S  S  S  S  S  S  S  S   
--------------------------------------------------|
--------------------------------------------------|
--------------------------------------------------|
--------------------------------------------------|
--------------------------------------------------|
--3--3--3--3--3--3--3--3--3--3--3--3--3--3--3--3--|


        PM PM PM PM       PM PM PM PM                                          
  E  E  S  S  S  S  E  E  S  S  S  S     W                   W                 
--------------------------------------|-------------------|-------------------|
--------------------------------------|-------------------|-------------------|
--------------------------------------|-------------------|-------------------|
--------------------------------------|--4----------------|--9----------------|
--3--3--3--3--3--3--3--3--3--3--3--3--|--2----------------|--7----------------|
--------------------------------------|-------------------|-------------------|


  W                   W                   W                   W                 
-------------------|-------------------|-------------------|-------------------|
-------------------|-------------------|-------------------|-------------------|
-------------------|-------------------|-------------------|-------------------|
--7----------------|-------------------|-------------------|--4----------------|
--5----------------|--5----------------|--4----------------|--2----------------|
-------------------|--3----------------|--2----------------|-------------------|


  |----3----|    |----3----|                         
  Q    Q    Q    Q    Q    Q       W                 
--------------------------------|-------------------|
--------------------------------|-------------------|
--------------------------------|-------------------|
--------------------------------|--2----------------|
--2----2----2----2----4----5----|--0----------------|
--------------------------------|-------------------|


  PM PM PM PM PM PM PM PM PM PM PM PM PM PM PM PM  
  S  S  S  S  S  S  S  S  S  S  S  S  S  S  S  S   
--------------------------------------------------|
--------------------------------------------------|
--------------------------------------------------|
--------------------------------------------------|
--------------------------------------------------|
--2--2--2--2--2--2--2--2--2--2--2--2--2--2--2--2--|


  PM PM PM PM PM PM PM PM PM PM PM PM PM PM PM PM                      
  S  S  S  S  S  S  S  S  S  S  S  S  S  S  S  S     W                 
--------------------------------------------------|-------------------|
--------------------------------------------------|-------------------|
--------------------------------------------------|-------------------|
--------------------------------------------------|-------------------|
--------------------------------------------------|--7----------------|
--7--7--7--7--7--7--7--7--7--7--7--7--7--7--7--7--|--5----------------|


                      PM PM PM PM PM PM PM PM PM PM PM PM PM PM PM PM  
  W                   S  S  S  S  S  S  S  S  S  S  S  S  S  S  S  S   
-------------------|--------------------------------------------------|
-------------------|--------------------------------------------------|
-------------------|--------------------------------------------------|
--7----------------|--------------------------------------------------|
--5----------------|--------------------------------------------------|
-------------------|--2--2--2--2--2--2--2--2--2--2--2--2--2--2--2--2--|


  PM PM PM PM PM PM PM PM PM PM PM PM PM PM PM PM                      
  S  S  S  S  S  S  S  S  S  S  S  S  S  S  S  S     W                 
--------------------------------------------------|-------------------|
--------------------------------------------------|-------------------|
--------------------------------------------------|-------------------|
--------------------------------------------------|-------------------|
--------------------------------------------------|--7----------------|
--7--7--7--7--7--7--7--7--7--7--7--7--7--7--7--7--|--5----------------|


  W                   W                   W                   
-------------------|-------------------|--------------------||
-------------------|-------------------|--------------------||
-------------------|-------------------|-------------------*||
--7----------------|-------------------|--7----------------*||
--5----------------|--7----------------|--5-----------------||
-------------------|--5----------------|--------------------||


  PM PM PM PM PM PM PM PM PM PM PM PM PM PM PM PM  
  S  S  S  S  S  S  S  S  S  S  S  S  S  S  S  S   
--------------------------------------------------|
--------------------------------------------------|
--------------------------------------------------|
--------------------------------------------------|
--5--5--5--5--5--5--5--5--5--5--5--5--5--5--5--5--|
--------------------------------------------------|


  PM PM PM PM PM PM PM PM PM PM PM PM PM PM PM PM  
  S  S  S  S  S  S  S  S  S  S  S  S  S  S  S  S   
--------------------------------------------------|
--------------------------------------------------|
--------------------------------------------------|
--------------------------------------------------|
--5--5--5--5--5--5--5--5--5--5--5--5--5--5--5--5--|
--------------------------------------------------|


  PM PM PM PM PM PM PM PM PM PM PM PM PM PM PM PM  
  S  S  S  S  S  S  S  S  S  S  S  S  S  S  S  S   
--------------------------------------------------|
--------------------------------------------------|
--------------------------------------------------|
--------------------------------------------------|
--5--5--5--5--5--5--5--5--5--5--5--5--5--5--5--5--|
--------------------------------------------------|


  PM PM PM PM PM PM PM PM PM PM PM PM PM PM PM PM  
  S  S  S  S  S  S  S  S  S  S  S  S  S  S  S  S   
--------------------------------------------------|
--------------------------------------------------|
--------------------------------------------------|
--------------------------------------------------|
--5--5--5--5--5--5--5--5--5--5--5--5--5--5--5--5--|
--------------------------------------------------|


  PM PM PM PM PM PM PM PM PM PM PM PM PM PM PM PM  
  S  S  S  S  S  S  S  S  S  S  S  S  S  S  S  S   
--------------------------------------------------|
--------------------------------------------------|
--------------------------------------------------|
--------------------------------------------------|
--5--5--5--5--5--5--5--5--5--5--5--5--5--5--5--5--|
--------------------------------------------------|


  PM PM PM PM PM PM PM PM PM PM PM PM PM PM PM PM  
  S  S  S  S  S  S  S  S  S  S  S  S  S  S  S  S   
--------------------------------------------------|
--------------------------------------------------|
--------------------------------------------------|
--------------------------------------------------|
--5--5--5--5--5--5--5--5--5--5--5--5--5--5--5--5--|
--------------------------------------------------|


  PM PM PM PM PM PM PM PM PM PM PM PM PM PM PM PM  
  S  S  S  S  S  S  S  S  S  S  S  S  S  S  S  S   
--------------------------------------------------|
--------------------------------------------------|
--------------------------------------------------|
--------------------------------------------------|
--5--5--5--5--5--5--5--5--5--5--5--5--5--5--5--5--|
--------------------------------------------------|


  PM PM PM PM PM PM PM PM PM PM PM PM PM PM PM PM                         
  S  S  S  S  S  S  S  S  S  S  S  S  S  S  S  S     Q    Q    Q    Q     
--------------------------------------------------|----------------------|
--------------------------------------------------|----------------------|
--------------------------------------------------|----------------------|
--------------------------------------------------|------------7---------|
--5--5--5--5--5--5--5--5--5--5--5--5--5--5--5--5--|--5---------5---------|
--------------------------------------------------|--3-------------------|


  PM    PM    PM PM PM PM PM PM PM PM                         
  E  E  E  E  S  S  S  S  S  S  S  S     Q    Q    Q    Q     
--------------------------------------|----------------------|
--------------------------------------|----------------------|
--------------------------------------|----------------------|
--------------------------------------|------------7---------|
--------------5--5--5--5--5--5--5--5--|--5---------5---------|
--6-----5-----------------------------|--3-------------------|


  PM    PM    PM PM PM PM                                                
  E  E  E  E  S  S  S  S  E  E     W                   W                 
--------------------------------|-------------------|-------------------|
--------------------------------|-------------------|-------------------|
--------------------------------|-------------------|-------------------|
--------------------------7-----|-------------------|-------------------|
--------------5--5--5--5--5-----|--2----------------|--L----------------|
--5-----5-----------------------|--0----------------|--L----------------|


  W                   W                   W                 
-------------------|-------------------|-------------------|
-------------------|-------------------|-------------------|
-------------------|-------------------|-------------------|
-------------------|-------------------|-------------------|
--L----------------|--L----------------|--L----------------|
--L----------------|--L----------------|--L----------------|


  H        Q    E  S S    W                   W                 
-----------------------|-------------------|-------------------|
-----------------------|-------------------|-------------------|
-----------------------|-------------------|-------------------|
-----------------------|-------------------|-------------------|
--L--------L----L--2-2-|--2----------------|--L----------------|
--L--------L----L--0-0-|--0----------------|--L----------------|


  W                   W                   W                   W                 
-------------------|-------------------|-------------------|-------------------|
-------------------|-------------------|-------------------|-------------------|
-------------------|-------------------|-------------------|-------------------|
-------------------|-------------------|-------------------|-------------------|
--L----------------|--L----------------|--L----------------|--L----------------|
--L----------------|--L----------------|--L----------------|--L----------------|


  W                   H        Q    E  S S    E  H        Q    E   
-------------------|-----------------------|----------------------|
-------------------|-----------------------|----------------------|
-------------------|-----------------------|----------------------|
--6----------------|--L--------L----L--4-4-|--4--6--------L----L--|
--4----------------|--L--------L----L--2-2-|--2--4--------L----L--|
-------------------|-----------------------|----------------------|


                         PM PM PM PM     PM PM PM PM PM PM PM PM  
  W                   E  S  S  S  S   E  S  S  S  S  S  S  S  S   
-------------------|---------------------------------------------|
-------------------|---------------------------------------------|
-------------------|---------------------------------------------|
--L----------------|--9--------------10--------------------------|
--L----------------|--7---------------7--------------------------|
-------------------|-----0--0--0--0------0--0--0--0--0--0--0--0--|


     PM PM PM PM     PM PM PM PM PM PM PM PM  
  E  S  S  S  S   E  S  S  S  S  S  S  S  S   
---------------------------------------------|
---------------------------------------------|
---------------------------------------------|
--9--------------10--------------------------|
--7---------------7--------------------------|
-----0--0--0--0------0--0--0--0--0--0--0--0--|


     PM PM     PM PM     PM PM    PM PM  
  E  S  S   E  S  S   E  S  S  E  S  S   
----------------------------------------|
----------------------------------------|
----------------------------------------|
--9--------10--------10--------9--------|
--7--7--7---7--7--7---7--7--7--7--7--7--|
----------------------------------------|


      PM PM     PM PM    PM PM     PM PM  
   E  S  S   E  S  S  E  S  S   E  S  S   
-----------------------------------------|
-----------------------------------------|
-----------------------------------------|
--12--------10--------9--------10--------|
---7--7--7---7--7--7--7--7--7---7--7--7--|
-----------------------------------------|


     PM PM PM PM    PM PM PM PM PM PM PM PM  
  E  S  S  S  S  E  S  S  S  S  S  S  S  S   
--------------------------------------------|
--------------------------------------------|
--------------------------------------------|
--7--------------8--------------------------|
--5--5--5--5--5--5--5--5--5--5--5--5--5--5--|
--------------------------------------------|


     PM PM PM PM    PM PM PM PM PM PM PM PM  
  E  S  S  S  S  E  S  S  S  S  S  S  S  S   
--------------------------------------------|
--------------------------------------------|
--------------------------------------------|
--7--------------8--------------------------|
--5--5--5--5--5--5--5--5--5--5--5--5--5--5--|
--------------------------------------------|


     PM PM    PM PM    PM PM    PM PM        PM PM    PM PM    PM PM    PM PM  
  E  S  S  E  S  S  E  S  S  E  S  S      E  S  S  E  S  S  E  S  S  E  S  S   
--------------------------------------|---------------------------------------|
--------------------------------------|---------------------------------------|
--------------------------------------|---------------------------------------|
--7--------8--------8--------7--------|--10--------8--------7--------8--------|
--5--5--5--5--5--5--5--5--5--5--5--5--|---5--5--5--5--5--5--5--5--5--5--5--5--|
--------------------------------------|---------------------------------------|


       PM PM PM PM     PM PM PM PM PM PM PM PM  
    E  S  S  S  S   E  S  S  S  S  S  S  S  S   
|----------------------------------------------|
|----------------------------------------------|
|*---------------------------------------------|
|*--9--------------10--------------------------|
|---7--7--7--7--7---7--7--7--7--7--7--7--7--7--|
|----------------------------------------------|


     PM PM PM PM     PM PM PM PM PM PM PM PM  
  E  S  S  S  S   E  S  S  S  S  S  S  S  S   
---------------------------------------------|
---------------------------------------------|
---------------------------------------------|
--9--------------10--------------------------|
--7--7--7--7--7---7--7--7--7--7--7--7--7--7--|
---------------------------------------------|


     PM PM     PM PM     PM PM    PM PM  
  E  S  S   E  S  S   E  S  S  E  S  S   
----------------------------------------|
----------------------------------------|
----------------------------------------|
--9--------10--------10--------9--------|
--7--7--7---7--7--7---7--7--7--7--7--7--|
----------------------------------------|


      PM PM     PM PM    PM PM     PM PM  
   E  S  S   E  S  S  E  S  S   E  S  S   
-----------------------------------------|
-----------------------------------------|
-----------------------------------------|
--12--------10--------9--------10--------|
---7--7--7---7--7--7--7--7--7---7--7--7--|
-----------------------------------------|


     PM PM    PM PM    PM PM    PM PM        PM PM    PM PM    PM PM     PM PM  
  E  S  S  E  S  S  E  S  S  E  S  S      E  S  S  E  S  S  E  S  S   E  S  S   
--------------------------------------|----------------------------------------|
--------------------------------------|----------------------------------------|
--7--------9--------9--------7--------|--10--------9--------7--------10--------|
--7--------9--------9--------7--------|--10--------9--------7--------10--------|
-----5--5-----5--5-----5--5-----5--5--|------5--5-----5--5-----5--5------5--5--|
--------------------------------------|----------------------------------------|


  E  S S S S E  H           E  S S S S E  H             H        H         
-------------------------|--------------------------||--------------------|
-------------------------|--------------------------||--------------------|
-------------------------|-------------------------*||--------------------|
--9----------9--L--------|--9----------9--L--------*||--9--------7--------|
--7----------7--L--------|--7----------7--L---------||--7--------5--------|
-----0-0-0-0-------------|-----0-0-0-0--------------||--------------------|


  E  E  E  E  S S S S E  E     H        H           E  E  E  E  H          
----------------------------|--------------------|------------------------|
----------------------------|--------------------|------------------------|
----------------------------|--------------------|------------------------|
--5-----7-------------9-----|--9--------7--------|--5-----7-----9\--------|
--3-----5-------------7-----|--7--------5--------|--3-----5-----7\--------|
--------------0-0-0-0-------|--------------------|------------------------|


  PM PM PM PM PM PM PM PM PM PM PM PM PM PM PM PM  
  S  S  S  S  S  S  S  S  S  S  S  S  S  S  S  S   
--------------------------------------------------|
--------------------------------------------------|
--------------------------------------------------|
--------------------------------------------------|
--------------------------------------------------|
--2--2--2--2--2--2--2--2--2--2--2--2--0--0--1--1--|


  PM PM PM PM PM PM PM PM PM PM PM PM PM PM PM PM  
  S  S  S  S  S  S  S  S  S  S  S  S  S  S  S  S   
--------------------------------------------------|
--------------------------------------------------|
--------------------------------------------------|
--------------------------------------------------|
--------------------------------------------------|
--2--2--2--2--2--2--2--2--2--2--2--2--0--0--1--1--|


  PM PM PM PM PM PM PM PM PM PM PM PM PM PM PM PM  
  S  S  S  S  S  S  S  S  S  S  S  S  S  S  S  S   
--------------------------------------------------|
--------------------------------------------------|
--------------------------------------------------|
--------------------------------------------------|
--------------------------------------------------|
--2--2--2--2--2--2--2--2--2--2--2--2--0--0--1--1--|


  PM PM PM PM PM PM PM PM PM PM PM PM PM PM PM PM  
  S  S  S  S  S  S  S  S  S  S  S  S  S  S  S  S   
--------------------------------------------------|
--------------------------------------------------|
--------------------------------------------------|
--------------------------------------------------|
--------------------------------------------------|
--2--2--2--2--2--2--2--2--2--2--2--2--1--1--2--2--|


  PM PM PM PM PM PM PM PM PM PM PM PM PM PM PM PM  
  S  S  S  S  S  S  S  S  S  S  S  S  S  S  S  S   
--------------------------------------------------|
--------------------------------------------------|
--------------------------------------------------|
--------------------------------------------------|
--2--2--2--2--2--2--2--2--2--2--2--2--0--0--3--3--|
--------------------------------------------------|


  PM PM PM PM PM PM PM PM PM PM PM PM PM PM PM PM  
  S  S  S  S  S  S  S  S  S  S  S  S  S  S  S  S   
--------------------------------------------------|
--------------------------------------------------|
--------------------------------------------------|
--------------------------------------------------|
--2--2--2--2--2--2--2--2--2--2--2--2--0--0--3--3--|
--------------------------------------------------|


  PM PM PM PM PM PM PM PM PM PM PM PM PM PM PM PM  
  S  S  S  S  S  S  S  S  S  S  S  S  S  S  S  S   
--------------------------------------------------|
--------------------------------------------------|
--------------------------------------------------|
--------------------------------------------------|
--2--2--2--2--2--2--2--2--0--0--0--0--------------|
--------------------------------------3--3--3--3--|


  PM PM PM PM PM PM PM PM PM PM PM PM PM PM PM PM  
  S  S  S  S  S  S  S  S  S  S  S  S  S  S  S  S   
--------------------------------------------------|
--------------------------------------------------|
--------------------------------------------------|
--------------------------------------------------|
--------------------------------------------------|
--2--2--2--2--2--2--2--2--2--2--2--2--0--0--1--1--|


  PM PM PM PM PM PM PM PM PM PM PM PM PM PM PM PM  
  S  S  S  S  S  S  S  S  S  S  S  S  S  S  S  S   
--------------------------------------------------|
--------------------------------------------------|
--------------------------------------------------|
--------------------------------------------------|
--------------------------------------------------|
--2--2--2--2--2--2--2--2--2--2--2--2--0--0--1--1--|


  PM PM PM PM PM PM PM PM PM PM PM PM PM PM PM PM  
  S  S  S  S  S  S  S  S  S  S  S  S  S  S  S  S   
--------------------------------------------------|
--------------------------------------------------|
--------------------------------------------------|
--------------------------------------------------|
--------------------------------------------------|
--2--2--2--2--2--2--2--2--2--2--2--2--0--0--1--1--|


  PM PM PM PM PM PM PM PM PM PM PM PM PM PM PM PM  
  S  S  S  S  S  S  S  S  S  S  S  S  S  S  S  S   
--------------------------------------------------|
--------------------------------------------------|
--------------------------------------------------|
--------------------------------------------------|
--------------------------------------------------|
--2--2--2--2--2--2--2--2--2--2--2--2--1--1--2--2--|


  PM PM PM PM PM PM PM PM PM PM PM PM PM PM PM PM  
  S  S  S  S  S  S  S  S  S  S  S  S  S  S  S  S   
--------------------------------------------------|
--------------------------------------------------|
--------------------------------------------------|
--------------------------------------------------|
--2--2--2--2--2--2--2--2--2--2--2--2--0--0--3--3--|
--------------------------------------------------|


  PM PM PM PM PM PM PM PM PM PM PM PM PM PM PM PM  
  S  S  S  S  S  S  S  S  S  S  S  S  S  S  S  S   
--------------------------------------------------|
--------------------------------------------------|
--------------------------------------------------|
--------------------------------------------------|
--2--2--2--2--2--2--2--2--2--2--2--2--0--0--3--3--|
--------------------------------------------------|


  PM PM PM PM PM PM PM PM PM PM PM PM PM PM PM PM  
  S  S  S  S  S  S  S  S  S  S  S  S  S  S  S  S   
--------------------------------------------------|
--------------------------------------------------|
--------------------------------------------------|
--------------------------------------------------|
--2--2--2--2--2--2--2--2--0--0--0--0--------------|
--------------------------------------3--3--3--3--|


  PM PM PM PM PM PM PM PM PM PM PM PM PM PM PM PM                       
  S  S  S  S  S  S  S  S  S  S  S  S  S  S  S  S     H        H         
--------------------------------------------------|--------------------|
--------------------------------------------------|--------------------|
--------------------------------------------------|--------------------|
--------------------------------------------------|--------------------|
--------------------------------------------------|--9--------7--------|
--2--2--2--2--2--2--2--2--2--2--2--2--2--2--2--2--|--7--------5--------|


              PM PM PM PM                                                     
  E  E  E  E  S  S  S  S  E  E     H        H           E  E  E  E  H         
--------------------------------|--------------------|-----------------------|
--------------------------------|--------------------|-----------------------|
--------------------------------|--------------------|-----------------------|
--------------------------------|--------------------|-----------------------|
--5-----7-----------------9-----|--9--------7--------|--5-----7-----9--------|
--3-----5-----7--7--7--7--7-----|--7--------5--------|--3-----5-----7--------|


  W                   W                   W                   W                 
-------------------|-------------------|-------------------|-------------------|
-------------------|-------------------|-------------------|-------------------|
-------------------|-------------------|-------------------|-------------------|
-------------------|-------------------|-------------------|--7----------------|
--4----------------|--9----------------|--7----------------|--5----------------|
--2----------------|--7----------------|--5----------------|-------------------|


  W                   W                   W                   W                 
-------------------|-------------------|-------------------|-------------------|
-------------------|-------------------|-------------------|-------------------|
-------------------|-------------------|-------------------|-------------------|
-------------------|-------------------|-------------------|--7----------------|
--4----------------|--9----------------|--7----------------|--5----------------|
--2----------------|--7----------------|--5----------------|-------------------|


    PM PM PM PM PM PM PM PM PM PM PM PM PM PM PM PM  
    S  S  S  S  S  S  S  S  S  S  S  S  S  S  S  S   
|---------------------------------------------------|
|---------------------------------------------------|
|*--------------------------------------------------|
|*--------------------------------------------------|
|---------------------------------------------------|
|---2--2--2--2--2--2--2--2--2--2--2--2--2--2--2--2--|


  PM PM PM PM PM PM PM PM PM PM PM PM  PM PMPM PM  
  S  S  S  S  S  S  S  S  S  S  S  S   S  S S  S   
--------------------------------------------------|
--------------------------------------------------|
--------------------------------------------------|
--------------------------------------------------|
--------------------------------------------------|
--7--7--7--7--7--7--7--7--7--7--9--9--10-10-7--7--|


  PM PM PM PM PM PM PM PM PM PM PM PM PM PM PM PM  
  S  S  S  S  S  S  S  S  S  S  S  S  S  S  S  S   
--------------------------------------------------|
--------------------------------------------------|
--------------------------------------------------|
--------------------------------------------------|
--------------------------------------------------|
--5--5--5--5--5--5--5--5--5--5--7--7--9--9--5--5--|


  PM PM PM PM PM PM PM PM PM PM PM PM PM PM PM PM                        
  S  S  S  S  S  S  S  S  S  S  S  S  S  S  S  S       W                 
---------------------------------------------------||-------------------|
---------------------------------------------------||-------------------|
--------------------------------------------------*||-------------------|
--------------------------------------------------*||-------------------|
--5--5--5--5--5--5--5--5--5--5--7--7--9--9--7--7---||--7----------------|
---------------------------------------------------||--5----------------|


  W                   W                   W                   W                 
-------------------|-------------------|-------------------|-------------------|
-------------------|-------------------|-------------------|-------------------|
-------------------|-------------------|-------------------|-------------------|
--7----------------|-------------------|--7----------------|-------------------|
--5----------------|--7----------------|--5----------------|--7----------------|
-------------------|--5----------------|-------------------|--5----------------|


  W                   W                   W                 
-------------------|-------------------|-------------------|
-------------------|-------------------|-------------------|
-------------------|-------------------|-------------------|
-------------------|-------------------|-------------------|
--L----------------|--L----------------|--L----------------|
--L----------------|--L----------------|--L----------------|


  PM PM PM PM PM PM PM PM PM PM PM PM PM PM PM PM  
  S  S  S  S  S  S  S  S  S  S  S  S  S  S  S  S   
--------------------------------------------------|
--------------------------------------------------|
--------------------------------------------------|
--------------------------------------------------|
--5--5--5--5--5--5--5--5--5--5--5--5--5--5--5--5--|
--------------------------------------------------|


  PM PM PM PM PM PM PM PM PM PM PM PM PM PM PM PM  
  S  S  S  S  S  S  S  S  S  S  S  S  S  S  S  S   
--------------------------------------------------|
--------------------------------------------------|
--------------------------------------------------|
--------------------------------------------------|
--5--5--5--5--5--5--5--5--5--5--5--5--5--5--5--5--|
--------------------------------------------------|


  PM PM PM PM PM PM PM PM PM PM PM PM PM PM PM PM  
  S  S  S  S  S  S  S  S  S  S  S  S  S  S  S  S   
--------------------------------------------------|
--------------------------------------------------|
--------------------------------------------------|
--------------------------------------------------|
--5--5--5--5--5--5--5--5--5--5--5--5--5--5--5--5--|
--------------------------------------------------|


  PM PM PM PM PM PM PM PM PM PM PM PM PM PM PM PM  
  S  S  S  S  S  S  S  S  S  S  S  S  S  S  S  S   
--------------------------------------------------|
--------------------------------------------------|
--------------------------------------------------|
--------------------------------------------------|
--5--5--5--5--5--5--5--5--5--5--5--5--5--5--5--5--|
--------------------------------------------------|


  PM PM PM PM PM PM PM PM PM PM PM PM PM PM PM PM  
  S  S  S  S  S  S  S  S  S  S  S  S  S  S  S  S   
--------------------------------------------------|
--------------------------------------------------|
--------------------------------------------------|
--------------------------------------------------|
--5--5--5--5--5--5--5--5--5--5--5--5--5--5--5--5--|
--------------------------------------------------|


  PM PM PM PM PM PM PM PM PM PM PM PM PM PM PM PM  
  S  S  S  S  S  S  S  S  S  S  S  S  S  S  S  S   
--------------------------------------------------|
--------------------------------------------------|
--------------------------------------------------|
--------------------------------------------------|
--5--5--5--5--5--5--5--5--5--5--5--5--5--5--5--5--|
--------------------------------------------------|


  PM PM PM PM PM PM PM PM PM PM PM PM PM PM PM PM  
  S  S  S  S  S  S  S  S  S  S  S  S  S  S  S  S   
--------------------------------------------------|
--------------------------------------------------|
--------------------------------------------------|
--------------------------------------------------|
--5--5--0--0--5--5--0--0--5--5--0--0--5--5--0--5--|
--------------------------------------------------|


  PM PM PM PM PM PM PM PM PM PM PM PM PM PM PM PM                           
  S  S  S  S  S  S  S  S  S  S  S  S  S  S  S  S     E  E  Q    E  E  Q     
--------------------------------------------------|------------------------|
--------------------------------------------------|------------------------|
--------------------------------------------------|------------------------|
--------------------------------------------------|------------------------|
--9--9--5--5--9--9--5--5--9--9--5--5--9--9--5--9--|--5----------9----------|
--------------------------------------------------|------------------------|


  E  E  Q    E  E  Q       E  E  E  E  E  E  E  E     E  E  Q    E  E  Q     
------------------------|--------------------------|------------------------|
------------------------|--------------------------|------------------------|
------------------------|--------------------------|------------------------|
------------------------|--------------------------|------------------------|
--5----------9----------|--5--9--5--9--5--9--5--9--|--5---------------------|
------------------------|--------------------------|-------------5----------|


  E  E  Q    E  E  Q       Q.      E  H                      
------------------------|----------------------|-----------||
------------------------|----------------------|-----------||
------------------------|----------------------|-----------||
------------------------|----------------------|-----------||
--7----------9----------|--5\------------------|-----------||
------------------------|----------------------|-----------||



Duration Legend
---------------
W - whole
H - half
Q - quarter
E - 8th
S - 16th
T - 32nd
X - 64th
. - note dotted
|-n-|  - n-tuplets


Tablature Legend
----------------
L - tied note
x - dead note
g - grace note
(n) - ghost note
> - accentuded note
NH - natural harmonic
AH - artificial harmonic
TH - tapped harmonic
SH - semi harmonic
PH - pitch harmonic
h - hammer on
p - pull off
b - bend
br - bendRelease
pb - preBend
pbr - preBendRelease
brb - bendReleaseBend
\n/ - tremolo bar dip
\n - tremolo bar dive
-/n - tremolo bar Release up
/n\ - tremolo bar inverted dip
/n - tremolo bar return
-\n - tremolo bar Release down
S - shift slide
s - legato slide
/ -  slide into from below or out of upwards
\ -  slide into from above or out of downwards
~ - vibrato
W - wide vibrato
tr - trill
TP - tremolo picking
T - tapping
S - slap
P - pop
< - fade in
^ - brush up
v - brush down
comments
We did not receive enough feedback on this tab! Please rate:
print report bad tab
1 2 3 4 5
I want to post or [tab]
guest
You may want to rate the tab now too:
select rating
Please do not post tabs as comments. Select "correction" instead!