Oops, an error
Loading. Please wait.

Land Of The Free Bass Tab

ver1
ver1

Whole song

Interactive

More versions @911Tabs.com
314 views 1 this week
no commentswrite comment
1 2 3 4 5
please rate
Autoscroll
+/-
esc
set tempo
stop
Difficulty
novice
Hey! There's an official Ultimate Guitar app which is ideal
for learning songs when you're away from computer. Get the app
WARNING: You are trying to view
                                    content from Ultimate-Guitar.com
                                    in an unauthorized application,
                                    which is prohibited.

                                    Please use an official Ultimate
                                    Guitar Tabs application for iPhone,
                                    iPad or Android to access legitimate
                                    chords, guitar, bass, and drum tabs
                                    from Ultimate-Guitar.com database.

                                    Type "ultimate guitar tabs" in Apple
                                    App Store's or Android Market's
                                    search to find the application.
 Land Of The Free                                 


                                                                       Gamma Ray
Jan



     |--3--|  |--3--|  |--3--|  |--3--|     |--3--|  |--3--|             
     E  E  E  E  E  E  E  E  E  E  E  E     E  E  E  E  E  E  Q    Q     
G||--------------------------------------|------------------------------|
D||--------------------5-----------------|------------------------------|
A||--5--7--7--7--7--7-----7--7--7--7--7--|--7--5--------------7----7----|
E||--------------------------------------|--------7--6--5--3------------|


  |--3--|  |--3--|  |--3--|  |--3--|     |--3--|  |--3--|             
  E  E  E  E  E  E  E  E  E  E  E  E     E  E  E  E  E  E  Q    Q     
--------------------------------------|------------------------------|
--------------------5-----------------|------------------------------|
--5--7--7--7--7--7-----7--7--7--7--7--|--7--5------------------------|
--------------------------------------|--------7--6--5--3--0----0----|


  |--3--|  |--3--|  |--3--|  |--3--|     |--3--|  |--3--|             
  E  E  E  E  E  E  E  E  E  E  E  E     E  E  E  E  E  E  Q    Q     
--------------------------------------|------------------------------|
--------------------5-----------------|------------------------------|
--5--7--7--7--7--7-----7--7--7--7--7--|--7--5--------------7----7----|
--------------------------------------|--------7--6--5--3------------|


  |--3--|  |--3--|  |--3--|  |--3--|     |--3--|  |--3--|            
  E  E  E  E  E  E  E  E  E  E  E  E     E  E  E  E  E  E  H         
--------------------------------------|-----------------------------|
--------------------5-----------------|-----------------------------|
--5--7--7--7--7--7-----7--7--7--7--7--|--7--5-----------------------|
--------------------------------------|--------7--6--5--3--0--------|


                |--3--|  |--3--|  |--3--|  |--3--|   
  H             E  E  E  E  E  E  E  E  E  E  E  E   
-----------||---------------------------------------|
-----------||*--------------------------------------|
-----------||*--5--7--7--7--7--7--5--7--7--7--7--7--|
--L--------||---------------------------------------|


  |--3--|  |--3--|               |--3--|  |--3--|  |--3--|  |--3--|   
  E  E  E  E  E  E  Q    Q       E  E  E  E  E  E  E  E  E  E  E  E   
------------------------------|--------------------------------------|
------------------------------|--------------------------------------|
--5--7--7--7--7--7--5---------|--5--7--7--7--7--7--5--7--7--7--7--7--|
-------------------------5----|--------------------------------------|


  |--3--|  |--3--|                       |--3--|        |--3--|   
  E  E  E  E  E  E  Q    Q         E  E  E  E  E  E  E  E  E  E   
-------------------------------||-----4--------------------------|
------------------------------*||--------4--4--4--4--4--4--4--4--|
--5--7--7--7--7--7--3----5----*||--2-----------------------------|
-------------------------------||--------------------------------|


        |--3--|  |----3----|                                                
  E  E  E  E  E  Q    Q    Q       H        H           H        Q    Q     
--------------------------------|--------------------|---------------------|
--------------------------------|--------------------|---------------------|
--2--2--2--2--2--3----3----5----|--------------------|-----------5---------|
--------------------------------|--0--------0--------|--L-------------5----|


                                                   |--3--|        |--3--|   
  H        H           H        Q    Q       E  E  E  E  E  E  E  E  E  E   
--------------------|---------------------|--------------------------------|
--------------------|---------------------|--------------------------------|
--------------------|-----------3----5----|--------------------------------|
--0--------0--------|--L------------------|--0--0--0--0--0--0--0--0--0--0--|


        |--3--|        |--3--|           |--3--|        |--3--|   
  E  E  E  E  E  E  E  E  E  E     E  E  E  E  E  E  E  E  E  E   
--------------------------------|--------------------------------|
--------------------------------|--------------------------------|
--------------------------------|--------------------------------|
--0--0--0--0--0--0--0--0--0--0--|--0--0--0--0--0--0--0--0--0--0--|


        |--3--|        |--3--|           |--3--|        |--3--|   
  E  E  E  E  E  E  E  E  E  E     E  E  E  E  E  E  E  E  E  E   
--------------------------------|--------------------------------|
--------------------------------|--------------------------------|
--------------------------------|--------------------------------|
--0--0--0--0--0--0--0--0--0--0--|--0--0--0--0--0--0--0--0--0--0--|


        |--3--|        |--3--|           |--3--|        |--3--|   
  E  E  E  E  E  E  E  E  E  E     E  E  E  E  E  E  E  E  E  E   
--------------------------------|--------------------------------|
--------------------------------|--------------------------------|
--------------------------------|--------------------------------|
--0--0--0--0--0--0--0--0--0--0--|--0--0--0--0--0--0--0--0--0--0--|


        |--3--|        |--3--|           |--3--|        |--3--|   
  E  E  E  E  E  E  E  E  E  E     E  E  E  E  E  E  E  E  E  E   
--------------------------------|--------------------------------|
--------------------------------|--------------------------------|
--------------------------------|--2--2--2--2--2--2--2--2--2--2--|
--0--0--0--0--0--0--0--0--0--0--|--------------------------------|


        |--3--|                     |--3--|        |--3--|   
  E  E  E  E  E  Q    Q       E  E  E  E  E  E  E  E  E  E   
---------------------------|--------------------------------|
---------------------------|--------------------------------|
--2--2--2--2--2--3----5----|--------------------------------|
---------------------------|--0--0--0--0--0--0--0--0--0--0--|


        |--3--|        |--3--|           |--3--|        |--3--|   
  E  E  E  E  E  E  E  E  E  E     E  E  E  E  E  E  E  E  E  E   
--------------------------------|--------------------------------|
--------------------------------|--------------------------------|
--------------------------------|--------------------------------|
--0--0--0--0--0--0--0--0--0--0--|--0--0--0--0--0--0--0--0--0--0--|


        |--3--|        |--3--|           |--3--|        |--3--|   
  E  E  E  E  E  E  E  E  E  E     E  E  E  E  E  E  E  E  E  E   
--------------------------------|--------------------------------|
--------------------------------|--------------------------------|
--------------------------------|--------------------------------|
--0--0--0--0--0--0--0--0--0--0--|--0--0--0--0--0--0--0--0--0--0--|


        |--3--|        |--3--|           |--3--|        |--3--|   
  E  E  E  E  E  E  E  E  E  E     E  E  E  E  E  E  E  E  E  E   
--------------------------------|--------------------------------|
--------------------------------|--------------------------------|
--------------------------------|--------------------------------|
--0--0--0--0--0--0--0--0--0--0--|--0--0--0--0--0--0--0--0--0--0--|


        |--3--|        |--3--|           |--3--|        |--3--|   
  E  E  E  E  E  E  E  E  E  E     E  E  E  E  E  E  E  E  E  E   
--------------------------------|--------------------------------|
--------------------------------|--------------------------------|
--------------------------------|--------------------------------|
--0--0--0--0--0--0--0--0--0--0--|--0--0--0--0--0--0--0--0--0--0--|


        |--3--|        |--3--|           |--3--|        |--3--|   
  E  E  E  E  E  E  E  E  E  E     E  E  E  E  E  E  E  E  E  E   
--------------------------------|--------------------------------|
--------------------------------|--------------------------------|
--------------------------------|--2--2--2--2--2--2--2--2--2--2--|
--0--0--0--0--0--0--0--0--0--0--|--------------------------------|


        |--3--|                                 
  E  E  E  E  E  Q    Q       W                 
---------------------------|-------------------|
---------------------------|-------------------|
--2--2--2--2--2--3----5----|--7----------------|
---------------------------|-------------------|


  |---3--|  |--3--|  |--3--|          |--3--|  |--3--|  |--3--|  |--3--|   
  E   E  E  E  E  E  E  E  E  Q       E  E  E  E  E  E  E  E  E  E  E  E   
-----------------------------------|--------------------------------------|
-----------------------------------|--------------------------------------|
---------5--5----------------------|--3--3--3--3--3--3--3--3--3--3--3--3--|
--5h--7--------7--5--7--5--3--0----|--------------------------------------|


  |--3--|  |--3--|  |--3--|  |--3--|     |--3--|  |--3--|  |--3--|  |--3--|   
  E  E  E  E  E  E  E  E  E  E  E  E     E  E  E  E  E  E  E  E  E  E  E  E   
--------------------------------------|--------------------------------------|
--------------------------------------|--------------------------------------|
--5--5--5--5--5--5--5--5--5--5--5--5--|--2--2--2--2--2--2--2--2--2--2--2--2--|
--------------------------------------|--------------------------------------|


  |--3--|  |--3--|  |--3--|  |--3--|   
  E  E  E  E  E  E  E  E  E  E  E  E   
--------------------------------------|
--------------------------------------|
--7--7--7--7--7--7--7--7--7--7--7--7--|
--------------------------------------|


   |---3---|   |---3---|   |---3---|   |---3---|   
   E   E   E   E   E   E   E   E   E   E   E   E   
--------------------------------------------------|
--------------------------------------------------|
--10--10--10--10--10--10--10--10--10--10--10--10--|
--------------------------------------------------|


  |--3--|  |--3--|  |--3--|  |--3--|     |--3--|  |--3--|  |--3--|  |--3--|   
  E  E  E  E  E  E  E  E  E  E  E  E     E  E  E  E  E  E  E  E  E  E  E  E   
--------------------------------------|--------------------------------------|
--------------------------------------|--------------------------------------|
--3--3--3--3--3--3--3--3--3--3--3--3--|--5--5--5--5--5--5--5--5--5--5--5--5--|
--------------------------------------|--------------------------------------|


  |--3--|  |--3--|  |--3--|  |--3--|       |--3--|  |--3--|  |--3--|  |--3--|   
  E  E  E  E  E  E  E  E  E  E  E  E       E  E  E  E  E  E  E  E  E  E  E  E   
--------------------------------------||---------------------------------------|
--------------------------------------||*--------------------------------------|
--5--5--5--3--3--3--2--2--2--0--0--0--||*--------------------2--2--2--3--3--3--|
--------------------------------------||---3--3--3--3--3--3--------------------|


  |--3--|  |--3--|  |--3--|  |--3--|     |--3--|  |--3--|  |--3--|  |--3--|   
  E  E  E  E  E  E  E  E  E  E  E  E     E  E  E  E  E  E  E  E  E  E  E  E   
--------------------------------------|--------------------------------------|
--------------------------------------|--2--2--2--2--2--2--2--2--2--4--4--5--|
--5--5--5--5--5--5--5--5--5--5--5--5--|--------------------------------------|
--------------------------------------|--------------------------------------|


  |--3--|  |--3--|  |--3--|  |--3--|     |--3--|  |--3--|  |--3--|  |--3--|   
  E  E  E  E  E  E  E  E  E  E  E  E     E  E  E  E  E  E  E  E  E  E  E  E   
--------------------------------------|--------------------------------------|
--------------------------------------|--------------------------------------|
--2--2--2--2--2--2--2--2--2--------2--|--3--3--3--3--3--3--3--3--3--3--3--3--|
-----------------------------3--5-----|--------------------------------------|


  |--3--|  |--3--|  |--3--|  |--3--|     |--3--|  |--3--|  |--3--|  |--3--|   
  E  E  E  E  E  E  E  E  E  E  E  E     E  E  E  E  E  E  E  E  E  E  E  E   
--------------------------------------|--------------------------------------|
--------------------------------------|--------------------------------------|
--------------------------------------|--------------------------------------|
--3--3--3--3--3--3--3--3--3--3--3--3--|--5--5--5--5--5--5--5--5--5--5--5--5--|


  |--3--|  |--3--|  |--3--|  |--3--|       |--3--|  |--3--|  |--3--|  |--3--|   
  E  E  E  E  E  E  E  E  E  E  E  E       E  E  E  E  E  E  E  E  E  E  E  E   
---------------------------------------||--------------------------------------|
--------------------------------------*||--------------------------------------|
--5--5--5--5--5--5--3--3--3--2--2--2--*||--3--3--3--3--3--3--3--3--3--3--3--3--|
---------------------------------------||--------------------------------------|


  |--3--|  |--3--|  |--3--|  |--3--|     |--3--|  |--3--|  |--3--|  |--3--|   
  E  E  E  E  E  E  E  E  E  E  E  E     E  E  E  E  E  E  E  E  E  E  E  E   
--------------------------------------|--------------------------------------|
--------------------------------------|--------------------------------------|
--5--5--5--5--5--5--5--5--5--5--5--5--|--------------------------------------|
--------------------------------------|--3--3--3--3--3--3--3--3--3--3--3--3--|


  |---3--|  |--3--|  |--3--|  |--3--|   
  E   E  E  E  E  E  E  E  E  E  E  E   
---------------------------------------|
--3h--5--5--5--5--5--5--5--5--5--5--5--|
---------------------------------------|
---------------------------------------|


    |--3--|  |--3--|  |--3--|  |--3--|     |--3--|  |--3--|  |--3--|  |--3--|   
    E  E  E  E  E  E  E  E  E  E  E  E     E  E  E  E  E  E  E  E  E  E  E  E   
|---------------------------------------|--2--2--2-----------------------------|
|*--2--2--2--2--2--2--4--4--4--5--5--5--|-----------5--5--5--4--4--4-----------|
|*--------------------------------------|-----------------------------5--5--5--|
|---------------------------------------|--------------------------------------|


  |--3--|  |--3--|  |--3--|  |--3--|     |--3--|  |--3--|  |--3--|  |--3--|     
  E  E  E  E  E  E  E  E  E  E  E  E     E  E  E  E  E  E  E  E  E  E  E  E     
--------------------------------------|---------------------------------------||
-----------------------------2--2--2--|--------------------2--2--2--4--4--4--*||
--3--3--3--3--3--3--5--5--5-----------|--5--5--5--5--5--5--------------------*||
--------------------------------------|---------------------------------------||


  |--3--|  |--3--|  |--3--|  |--3--|     |--3--|  |--3--|  |--3--|  |--3--|   
  E  E  E  E  E  E  E  E  E  E  E  E     E  E  E  E  E  E  E  E  E  E  E  E   
--------------------------------------|--------------------------------------|
-----------------------------2--2--2--|--------------------2--2--2--4--4--4--|
--3--3--3--3--3--3--5--5--5-----------|--5--5--5--5--5--5--------------------|
--------------------------------------|--------------------------------------|


  |--3--|  |--3--|  |--3--|  |--3--|     |--3--|  |--3--|             
  E  E  E  E  E  E  E  E  E  E  E  E     E  E  E  E  E  E  Q    Q     
--------------------------------------|--4--4--4--4--4--4------------|
--------------------4--4--4--4--4--4--|------------------------------|
--2--2--2--2--2--2--------------------|--------------------3----5----|
--------------------------------------|------------------------------|


        |--3--|        |--3--|          |--3--|        |--3--|   
  E  E  E  E  E  E  E  E  E  E     Q    E  E  E  E  E  E  E  E   
--------------------------------|-------------------------------|
--------------------------------|-------------------------------|
-----------------7--------------|-------------------------------|
--0--0--0--0--0-----0--0--0--0--|--0----0--0--0--0--0--0--0--0--|


        |--3--|        |--3--|          |--3--|        |--3--|   
  E  E  E  E  E  E  E  E  E  E     Q    E  E  E  E  E  E  E  E   
--------------------------------|-------------------------------|
--------------------------------|-------------------------------|
-----------------7--------------|-------------------------------|
--0--0--0--0--0-----0--0--0--0--|--0----0--0--0--0--0--0--0--0--|


        |--3--|        |--3--|          |--3--|        |--3--|   
  E  E  E  E  E  E  E  E  E  E     Q    E  E  E  E  E  E  E  E   
--------------------------------|-------------------------------|
--------------------------------|-------------------------------|
-----------------7--------------|-------------------------------|
--0--0--0--0--0-----0--0--0--0--|--0----0--0--0--0--0--0--0--0--|


        |--3--|        |--3--|          |--3--|        |--3--|   
  E  E  E  E  E  E  E  E  E  E     Q    E  E  E  E  E  E  E  E   
--------------------------------|-------------------------------|
--------------------------------|-------------------------------|
-----------------7--------------|-------------------------------|
--0--0--0--0--0-----0--0--0--0--|--0----0--0--0--0--0--0--0--0--|


  |--3--|  |--3--|  |--3--|  |--3--|     |--3--|  |--3--|  |--3--|  |--3--|   
  E  E  E  E  E  E  E  E  E  E  E  E     E  E  E  E  E  E  E  E  E  E  E  E   
--------------------------------------|--------------------------------------|
--------------------------------------|--------------------------------------|
--3--3--3--3--3--3--3--3--3--3--3--3--|--5--5--5--5--5--5--5--5--5--5--5--5--|
--------------------------------------|--------------------------------------|


  |--3--|  |--3--|  |--3--|  |--3--|     |--3--|  |--3--|  |--3--|  |--3--|   
  E  E  E  E  E  E  E  E  E  E  E  E     E  E  E  E  E  E  E  E  E  E  E  E   
--------------------------------------|--------------------------------------|
--------------------------------------|--------------------------------------|
--2--2--2--2--2--2--2--2--2--2--2--2--|--7--7--7--7--7--7--7--7--7--7--7--7--|
--------------------------------------|--------------------------------------|


   |---3---|   |---3---|   |---3---|   |---3---|   
   E   E   E   E   E   E   E   E   E   E   E   E   
--------------------------------------------------|
--------------------------------------------------|
--10--10--10--10--10--10--10--10--10--10--10--10--|
--------------------------------------------------|


  |--3--|  |--3--|  |--3--|  |--3--|     |--3--|  |--3--|  |--3--|  |--3--|   
  E  E  E  E  E  E  E  E  E  E  E  E     E  E  E  E  E  E  E  E  E  E  E  E   
--------------------------------------|--------------------------------------|
--------------------------------------|--------------------------------------|
--3--3--3--3--3--3--3--3--3--3--3--3--|--5--5--5--5--5--5--5--5--5--5--5--5--|
--------------------------------------|--------------------------------------|


  |--3--|  |--3--|  |--3--|  |--3--|       |--3--|  |--3--|  |--3--|  |--3--|   
  E  E  E  E  E  E  E  E  E  E  E  E       E  E  E  E  E  E  E  E  E  E  E  E   
--------------------------------------||---------------------------------------|
--------------------------------------||*--------------------------------------|
--5--5--5--3--3--3--2--2--2--0--0--0--||*--------------------2--2--2--3--3--3--|
--------------------------------------||---3--3--3--3--3--3--------------------|


  |--3--|  |--3--|  |--3--|  |--3--|     |--3--|  |--3--|  |--3--|  |--3--|   
  E  E  E  E  E  E  E  E  E  E  E  E     E  E  E  E  E  E  E  E  E  E  E  E   
--------------------------------------|--------------------------------------|
--------------------------------------|--2--2--2--2--2--2--2--2--2--4--4--5--|
--5--5--5--5--5--5--5--5--5--5--5--5--|--------------------------------------|
--------------------------------------|--------------------------------------|


  |--3--|  |--3--|  |--3--|  |--3--|     |--3--|  |--3--|  |--3--|  |--3--|   
  E  E  E  E  E  E  E  E  E  E  E  E     E  E  E  E  E  E  E  E  E  E  E  E   
--------------------------------------|--------------------------------------|
--------------------------------------|--------------------------------------|
--2--2--2--2--2--2--2--2--2--------2--|--3--3--3--3--3--3--3--3--3--3--3--3--|
-----------------------------3--5-----|--------------------------------------|


  |--3--|  |--3--|  |--3--|  |--3--|     |--3--|  |--3--|  |--3--|  |--3--|   
  E  E  E  E  E  E  E  E  E  E  E  E     E  E  E  E  E  E  E  E  E  E  E  E   
--------------------------------------|--------------------------------------|
--------------------------------------|--------------------------------------|
--------------------------------------|--------------------------------------|
--3--3--3--3--3--3--3--3--3--3--3--3--|--5--5--5--5--5--5--5--5--5--5--5--5--|


  |--3--|  |--3--|  |--3--|  |--3--|       |--3--|  |--3--|  |--3--|  |--3--|   
  E  E  E  E  E  E  E  E  E  E  E  E       E  E  E  E  E  E  E  E  E  E  E  E   
---------------------------------------||--------------------------------------|
--------------------------------------*||--------------------------------------|
--5--5--5--5--5--5--3--3--3--2--2--2--*||--3--3--3--3--3--3--3--3--3--3--3--3--|
---------------------------------------||--------------------------------------|


  |--3--|  |--3--|  |--3--|  |--3--|     |--3--|  |--3--|  |--3--|  |--3--|   
  E  E  E  E  E  E  E  E  E  E  E  E     E  E  E  E  E  E  E  E  E  E  E  E   
--------------------------------------|--------------------------------------|
--------------------------------------|--------------------------------------|
--5--5--5--5--5--5--5--5--5--5--5--5--|--------------------------------------|
--------------------------------------|--3--3--3--3--3--3--3--3--3--3--3--3--|


  |---3--|  |--3--|  |--3--|  |--3--|     |---3--|  |--3--|  |--3--|  |--3--|   
  E   E  E  E  E  E  E  E  E  E  E  E     E   E  E  E  E  E  E  E  E  E  E  E   
---------------------------------------|---------------------------------------|
--3h--5--5--5--5--5--5--3--------------|---------------------------------------|
---------------------------5--3--2--0--|--0h--2--2--2--2--2--2--2--2--2--2--2--|
---------------------------------------|---------------------------------------|


  |--3--|  |--3--|  |--3--|  |--3--|     |---3--|  |--3--|  |--3--|  |--3--|   
  E  E  E  E  E  E  E  E  E  E  E  E     E   E  E  E  E  E  E  E  E  E  E  E   
--------------------------------------|---------------------------------------|
--------------------------------------|---------------------------------------|
--2--2--2--2--2--2--2--2--2--2--2--2--|--0h--2--2--2--2--2--2--2--2--2--2--2--|
--------------------------------------|---------------------------------------|


  |--3--|  |--3--|              |---3--|  |--3--|  |--3--|  |--3--|   
  E  E  E  E  E  E  H           E   E  E  E  E  E  E  E  E  E  E  E   
-----------------------------|---------------------------------------|
-----------------------------|---------------------------------------|
--3--2--2--2--2--2--2--------|--0h--2--2--2--2--2--2--2--2--2--2--2--|
-----------------------------|---------------------------------------|


  |--3--|  |--3--|  |--3--|  |--3--|     |---3--|  |--3--|  |--3--|  |--3--|   
  E  E  E  E  E  E  E  E  E  E  E  E     E   E  E  E  E  E  E  E  E  E  E  E   
--------------------------------------|---------------------------------------|
--------------------------------------|---------------------------------------|
--2--2--2--2--2--2--2--2--2--2--2--2--|--0h--2--2--2--2--2--2--2--2--2--2--2--|
--------------------------------------|---------------------------------------|


  |--3--|  |--3--|  |--3--|  |--3--|     |--3--|  |--3--|  |--3--|  |--3--|   
  E  E  E  E  E  E  E  E  E  E  E  E     E  E  E  E  E  E  E  E  E  E  E  E   
--------------------------------------|--------------------------------------|
--------------------------------------|--------------------------------------|
--3--2-----2--------------------------|--7--7--7--7--7--7--7--7--7--7--7--7--|
--------5-----5--3--5--3--2--3--2--0--|--------------------------------------|


  |--3--|  |--3--|  |--3--|  |--3--|     |---3--|  |--3--|  |--3--|  |--3--|   
  E  E  E  E  E  E  E  E  E  E  E  E     E   E  E  E  E  E  E  E  E  E  E  E   
--------------------------------------|---------------------------------------|
--------------------------------------|---------------------------------------|
--7--7--7--7--7--7--7--7--7--7--7--7--|--5h--7--7--7--7--7--7--7--7--7--7--7--|
--------------------------------------|---------------------------------------|


  |--3--|  |--3--|  |--3--|  |--3--|     |---3--|  |--3--|  |--3--|  |--3--|   
  E  E  E  E  E  E  E  E  E  E  E  E     E   E  E  E  E  E  E  E  E  E  E  E   
--------------------------------------|---------------------------------------|
--------------------------------------|---------------------------------------|
--8--7--5--7--5-----5-----------------|--0h--2--2--2--2--2--2--2--2--2--2--2--|
-----------------8-----8--7--8--7--5--|---------------------------------------|


  |--3--|  |--3--|  |--3--|  |--3--|     |--3--|  |--3--|  |--3--|  |--3--|   
  E  E  E  E  E  E  E  E  E  E  E  E     E  E  E  E  E  E  E  E  E  E  E  E   
--------------------------------------|--------------------------------------|
--------------------------------------|--------------------------------------|
--2--2--2--2--2--2--2--2--2--2--2--2--|--2--2--2--2--2--2--2--2--2--2--2--2--|
--------------------------------------|--------------------------------------|


  |--3--|  |--3--|  |--3--|  |--3--|     |--3--|  |--3--|  |--3--|  |--3--|   
  E  E  E  E  E  E  E  E  E  E  E  E     E  E  E  E  E  E  E  E  E  E  E  E   
--------------------------------------|--------------------------------------|
--------------------------------------|--------------------------------------|
--3--2-----2--------------------------|--3--3--3--3--3--3--3--3--3--3--3--3--|
--------5-----5--3--5--3--2--3--2--0--|--------------------------------------|


  |--3--|  |--3--|  |--3--|  |--3--|     |--3--|  |--3--|  |--3--|  |--3--|   
  E  E  E  E  E  E  E  E  E  E  E  E     E  E  E  E  E  E  E  E  E  E  E  E   
--------------------------------------|--------------------------------------|
--------------------------------------|--------------------------------------|
--5--5--5--5--5--5--5--5--5--5--5--5--|--------------------------------------|
--------------------------------------|--3--3--3--3--3--3--3--3--3--3--3--3--|


  |--3--|  |--3--|  |--3--|  |--3--|     |--3--|  |--3--|  |--3--|  |--3--|   
  E  E  E  E  E  E  E  E  E  E  E  E     E  E  E  E  E  E  E  E  E  E  E  E   
--------------------------------------|--------------------------------------|
--------------------------------------|--------------------------------------|
--3--3--3--3--3--3--3--3--3--3--3--3--|--5--5--5--5--5--5--5--5--5--5--5--5--|
--------------------------------------|--------------------------------------|


   |--3--|  |--3--|  |--3--|  |--3--|     |---3--|  |--3--|  |--3--|  |--3--|   
   E  E  E  E  E  E  E  E  E  E  E  E     E   E  E  E  E  E  E  E  E  E  E  E   
--/7--7--7--7--7--7--7--7--7--7--7--7--|---------------------------------------|
---------------------------------------|---------------------------------------|
---------------------------------------|--2h--4--4--4--4--4--4--4--4--4--4--4--|
---------------------------------------|---------------------------------------|


  |---3--|  |--3--|  |--3--|  |--3--|   
  E   E  E  E  E  E  E  E  E  E  E  E   
---------------------------------------|
---------------------------------------|
--5p--4--4--4--4--4--4--4--4--4--4--4--|
---------------------------------------|


  |---3--|  |--3--|  |---3--|  |--3--|     |--3--|  |--3--|            
  E   E  E  E  E  E  E   E  E  E  E  E     E  E  E  E  E  E  H         
----------------------------------------|-----------------------------|
----------------------------------------|-----------------------------|
--2h--4--4--4--4--4--5p--4--4--4--4--4--|--0--0--0--0--0--0--2--------|
----------------------------------------|-----------------------------|


  |---3--|  |--3--|  |--3--|  |--3--|     |---3--|  |--3--|  |--3--|  |--3--|   
  E   E  E  E  E  E  E  E  E  E  E  E     E   E  E  E  E  E  E  E  E  E  E  E   
---------------------------------------|---------------------------------------|
---------------------------------------|---------------------------------------|
--2h--4--4--4--4--4--4--4--4--4--4--4--|--5p--4--4--4--4--4--4--4--4--4--4--4--|
---------------------------------------|---------------------------------------|


  |---3--|  |--3--|  |---3--|  |--3--|     |--3--|  |--3--|            
  E   E  E  E  E  E  E   E  E  E  E  E     E  E  E  E  E  E  H         
----------------------------------------|-----------------------------|
----------------------------------------|-----------------------------|
--2h--4--4--4--4--4--5p--4--4--4--4--4--|--0--0--0--0--0--0--2--------|
----------------------------------------|-----------------------------|


  |-3-|                    |-3-|                  
  E   Q    H.              E   Q    H.            
------------------------|------------------------|
------------------------|------------------------|
--4h--6----L------------|--7p--6----L------------|
------------------------|------------------------|


  |-3-|         |-3-|                                 |-3-|                  
  E   Q    Q    E   Q    Q       H        H           E   Q    H.            
------------------------------|--------------------|------------------------|
------------------------------|--------------------|------------------------|
--4h--6----L----7p--6----L----|--2--------4--------|--4h--6----L------------|
------------------------------|--------------------|------------------------|


  |-3-|                    |-3-|         |-3-|                               
  E   Q    H.              E   Q    Q    E   Q    Q       H        H         
------------------------|------------------------------|--------------------|
------------------------|------------------------------|--------------------|
--7p--6----L------------|--4h--6----L----7p--6----L----|--2--------4--------|
------------------------|------------------------------|--------------------|


    |--3--|  |--3--|  |--3--|          |--3--|  |--3--|  |--3--|        
    E  E  E  E  E  E  E  E  E  Q       E  E  E  E  E  E  E  E  E  Q     
|-----------------------------------|----------------------------------|
|*----------------------------------|----------------------------------|
|*-----------------------------7----|-----------------------------5----|
|---0--0--0--0--0--0--0--0--0-------|--0--0--0--0--0--0--0--0--0-------|


  |--3--|  |--3--|  |--3--|                                                    
  E  E  E  E  E  E  E  E  E  Q       H        H             H        H         
----------------------------------|---------------------||--------------------|
----------------------------------|--------------------*||--------------------|
-----------------------------7----|-----------5--------*||-----------5--------|
--0--0--0--0--0--0--0--0--0-------|--3------------------||--3-----------------|


                       |-3-|    |--3--|  |--3--|  |--3--|                       
   W                   E   Q    E  E  E  E  E  E  E  E  E     W                 
--------------------|--5h--7----7--7--7--7--5--4-----------|-------------------|
--/5----------------|-----------------------------7--5--4--|-------------------|
--------------------|--------------------------------------|--5----------------|
--------------------|--------------------------------------|-------------------|


   |--3--|  |--3--|  |--3--|  |--3--|           |--3--|        |--3--|   
   E  E  E  E  E  E  E  E  E  E  E  E     E  E  E  E  E  E  E  E  E  E   
--/7--7--7--7--7--7--7--7--7--7--7--7--|--------------------------------|
---------------------------------------|-----------------4--4--4--4--4--|
---------------------------------------|--2--2--2--2--2-----------------|
---------------------------------------|--------------------------------|


        |--3--|        |--3--|                                                 
  E  E  E  E  E  E  E  E  E  E     Q    Q    Q    Q       Q    Q    Q    Q     
--4--4--4--4--4-----------------|----------------------|----------------------|
-----------------4--4--4--4--4--|----------------------|----------------------|
--------------------------------|--2----0--------------|--2----0--------------|
--------------------------------|------------3----2----|------------3----2----|


    |--3--|  |--3--|  |--3--|  |--3--|     |--3--|  |--3--|  |--3--|  |--3--|   
    E  E  E  E  E  E  E  E  E  E  E  E     E  E  E  E  E  E  E  E  E  E  E  E   
|---------------------------------------|--------------------------------------|
|*--------------------------------------|--------------------------------------|
|*--------------------2--2--2--3--3--3--|--5--5--5--5--5--5--5--5--5--5--5--5--|
|---3--3--3--3--3--3--------------------|--------------------------------------|


  |--3--|  |--3--|  |--3--|  |--3--|     |--3--|  |--3--|  |--3--|  |--3--|   
  E  E  E  E  E  E  E  E  E  E  E  E     E  E  E  E  E  E  E  E  E  E  E  E   
--------------------------------------|--------------------------------------|
--2--2--2--2--2--2--2--2--2--4--4--5--|--------------------------------------|
--------------------------------------|--2--2--2--2--2--2--2--2--2--------2--|
--------------------------------------|-----------------------------3--5-----|


  |--3--|  |--3--|  |--3--|  |--3--|     |--3--|  |--3--|  |--3--|  |--3--|   
  E  E  E  E  E  E  E  E  E  E  E  E     E  E  E  E  E  E  E  E  E  E  E  E   
--------------------------------------|--------------------------------------|
--------------------------------------|--------------------------------------|
--3--3--3--3--3--3--3--3--3--3--3--3--|--------------------------------------|
--------------------------------------|--3--3--3--3--3--3--3--3--3--3--3--3--|


  |--3--|  |--3--|  |--3--|  |--3--|     |--3--|  |--3--|  |--3--|  |--3--|     
  E  E  E  E  E  E  E  E  E  E  E  E     E  E  E  E  E  E  E  E  E  E  E  E     
--------------------------------------|---------------------------------------||
--------------------------------------|--------------------------------------*||
--------------------------------------|--5--5--5--5--5--5--3--3--3--2--2--2--*||
--5--5--5--5--5--5--5--5--5--5--5--5--|---------------------------------------||


  |--3--|  |--3--|  |--3--|  |--3--|     |--3--|  |--3--|  |--3--|  |--3--|   
  E  E  E  E  E  E  E  E  E  E  E  E     E  E  E  E  E  E  E  E  E  E  E  E   
--------------------------------------|--------------------------------------|
--------------------------------------|--------------------------------------|
--3--3--3--3--3--3--3--3--3--3--3--3--|--5--5--5--5--5--5--5--5--5--5--5--5--|
--------------------------------------|--------------------------------------|


  |--3--|  |--3--|  |--3--|  |--3--|     |--3--|  |--3--|  |--3--|  |--3--|   
  E  E  E  E  E  E  E  E  E  E  E  E     E  E  E  E  E  E  E  E  E  E  E  E   
--------------------------------------|--------------------------------------|
--------------------------------------|--------------------------------------|
--------------------------------------|--------------------------------------|
--3--3--3--3--3--3--3--3--3--3--3--3--|--3--3--3--3--3--3--3--3--3--3--3--3--|


  |--3--|  |--3--|  |--3--|  |--3--|     |--3--|  |--3--|  |--3--|  |--3--|   
  E  E  E  E  E  E  E  E  E  E  E  E     E  E  E  E  E  E  E  E  E  E  E  E   
--------------------------------------|--------------------------------------|
--------------------------------------|--------------------------------------|
--3--3--3--3--3--3--3--3--3--3--3--3--|--5--5--5--5--5--5--5--5--5--5--5--5--|
--------------------------------------|--------------------------------------|


  |--3--|  |--3--|  |--3--|  |--3--|     |--3--|  |--3--|  |--3--|  |--3--|   
  E  E  E  E  E  E  E  E  E  E  E  E     E  E  E  E  E  E  E  E  E  E  E  E   
--------------------------------------|--2--2--2-----------------------------|
--2--2--2--2--2--2--2--2--2--2--2--2--|-----------5--5--5--4--4--4-----------|
--------------------------------------|-----------------------------5--5--5--|
--------------------------------------|--------------------------------------|


  |--3--|  |--3--|  |--3--|  |--3--|     |--3--|  |--3--|  |--3--|  |--3--|   
  E  E  E  E  E  E  E  E  E  E  E  E     E  E  E  E  E  E  E  E  E  E  E  E   
--------------------------------------|--------------------------------------|
--------------------------------------|--------------------------------------|
--3--3--3--3--3--3--3--3--3--3--3--3--|--5--5--5--5--5--5--5--5--5--5--5--5--|
--------------------------------------|--------------------------------------|


  |--3--|  |--3--|  |--3--|  |--3--|     |--3--|  |--3--|  |--3--|  |--3--|   
  E  E  E  E  E  E  E  E  E  E  E  E     E  E  E  E  E  E  E  E  E  E  E  E   
--------------------------------------|--------------------------------------|
--------------------------------------|--------------------------------------|
--------------------------------------|--------------------------------------|
--3--3--3--3--3--3--3--3--3--3--3--3--|--3--3--3--3--3--3--3--3--3--3--3--2--|


                                      |--3--|                          
  E  E  Q    H           H.           E  E  E     E  E  Q    H         
----------------------|------------------------|----------------------|
----------------------|------------------------|----------------------|
----------------------|------------------------|----------------------|
--3----------3--------|--L------------3--3--2--|--3----------3--------|


               |--3--|                                                
  H.           E  E  E     E  E  Q    E  E  Q       W                 
------------------------|------------------------|-------------------|
------------------------|------------------------|-------------------|
------------------------|------------------------|-------------------|
--L------------3--3--2--|--3----------2----------|--0----------------|


  W                   W                   W                          
-------------------|-------------------|-------------------|-------||
-------------------|-------------------|-------------------|-------||
-------------------|-------------------|-------------------|-------||
--L----------------|--L----------------|--L----------------|-------||




Duration Legend
---------------
W - whole
H - half
Q - quarter
E - 8th
S - 16th
T - 32nd
X - 64th
. - note dotted
|-n-|  - n-tuplets


Tablature Legend
----------------
L - tied note
x - dead note
g - grace note
(n) - ghost note
> - accentuded note
NH - natural harmonic
AH - artificial harmonic
TH - tapped harmonic
SH - semi harmonic
PH - pitch harmonic
h - hammer on
p - pull off
b - bend
br - bendRelease
pb - preBend
pbr - preBendRelease
brb - bendReleaseBend
\n/ - tremolo bar dip
\n - tremolo bar dive
-/n - tremolo bar Release up
/n\ - tremolo bar inverted dip
/n - tremolo bar return
-\n - tremolo bar Release down
S - shift slide
s - legato slide
/ -  slide into from below or out of upwards
\ -  slide into from above or out of downwards
~ - vibrato
W - wide vibrato
tr - trill
TP - tremolo picking
T - tapping
S - slap
P - pop
< - fade in
^ - brush up
v - brush down
comments
We did not receive enough feedback on this tab! Please rate:
print report bad tab
1 2 3 4 5
I want to post or [tab]
guest
You may want to rate the tab now too:
select rating
Please do not post tabs as comments. Select "correction" instead!