Oops, an error
Loading. Please wait.

Land Of The Free Tab

ver2
ver2

Whole song

Interactive

More versions @911Tabs.com
231 views 1 this week
no commentswrite comment
1 2 3 4 5
please rate
Autoscroll
+/-
esc
set tempo
stop
Contributor
Difficulty
intermediate
Hey! There's an official Ultimate Guitar app which is ideal
for learning songs when you're away from computer. Get the app
WARNING: You are trying to view
                                    content from Ultimate-Guitar.com
                                    in an unauthorized application,
                                    which is prohibited.

                                    Please use an official Ultimate
                                    Guitar Tabs application for iPhone,
                                    iPad or Android to access legitimate
                                    chords, guitar, bass, and drum tabs
                                    from Ultimate-Guitar.com database.

                                    Type "ultimate guitar tabs" in Apple
                                    App Store's or Android Market's
                                    search to find the application.
  Land Of The Free                                 


                                                                       Gamma Ray
Kai



     |--3--|  |--3--|  |--3--|  |--3--|     |--3--|  |--3--|             
     E  E  E  E  E  E  E  E  E  E  E  E     E  E  E  E  E  E  Q    Q     
E||--------------------------------------|------------------------------|
B||--------------------------------------|------------------------------|
G||--------------------------------------|------------------------------|
D||--------------------5-----------------|--------------------9----9----|
A||--5--7--7--7--7--7-----7--7--7--7--7--|--7--5--------------7----7----|
E||--------------------------------------|--------7--6--5--3------------|


  |--3--|  |--3--|  |--3--|  |--3--|     |--3--|  |--3--|             
  E  E  E  E  E  E  E  E  E  E  E  E     E  E  E  E  E  E  Q    Q     
--------------------------------------|------------------------------|
--------------------------------------|------------------------------|
--------------------------------------|------------------------------|
--------------------5-----------------|------------------------------|
--5--7--7--7--7--7-----7--7--7--7--7--|--7--5--------------2----2----|
--------------------------------------|--------7--6--5--3--0----0----|


  |--3--|  |--3--|  |--3--|  |--3--|     |--3--|  |--3--|             
  E  E  E  E  E  E  E  E  E  E  E  E     E  E  E  E  E  E  Q    Q     
--------------------------------------|------------------------------|
--------------------------------------|------------------------------|
--------------------------------------|------------------------------|
--------------------5-----------------|--------------------9----9----|
--5--7--7--7--7--7-----7--7--7--7--7--|--7--5--------------7----7----|
--------------------------------------|--------7--6--5--3------------|


  |--3--|  |--3--|  |--3--|  |--3--|     |--3--|  |--3--|            
  E  E  E  E  E  E  E  E  E  E  E  E     E  E  E  E  E  E  H         
--------------------------------------|-----------------------------|
--------------------------------------|-----------------------------|
--------------------------------------|-----------------------------|
--------------------5-----------------|-----------------------------|
--5--7--7--7--7--7-----7--7--7--7--7--|--7--5--------------2--------|
--------------------------------------|--------7--6--5--3--0--------|


                |--3--|  |--3--|  |--3--|  |--3--|   
  H             E  E  E  E  E  E  E  E  E  E  E  E   
-----------||---------------------------------------|
-----------||---------------------------------------|
-----------||*--------------------------------------|
-----------||*--------------------------------------|
--L--------||---5--7--7--7--7--7--5--7--7--7--7--7--|
--L--------||---------------------------------------|


  |--3--|  |--3--|               |--3--|  |--3--|  |--3--|  |--3--|   
  E  E  E  E  E  E  Q    Q       E  E  E  E  E  E  E  E  E  E  E  E   
------------------------------|--------------------------------------|
------------------------------|--------------------------------------|
------------------------------|--------------------------------------|
--------------------7---------|--------------------------------------|
--5--7--7--7--7--7--5----7----|--5--7--7--7--7--7--5--7--7--7--7--7--|
-------------------------5----|--------------------------------------|


  |--3--|  |--3--|                       |--3--|        |--3--|   
  E  E  E  E  E  E  Q    Q         E  E  E  E  E  E  E  E  E  E   
-------------------------------||--------------------------------|
-------------------------------||--------------------------------|
------------------------------*||--------------------------------|
--------------------5----7----*||--4--4-----------4--4-----------|
--5--7--7--7--7--7--3----5-----||--2--2--2--2--2--2--2--2--2--2--|
-------------------------------||--------------------------------|


        |--3--|  |----3----|                                                
  E  E  E  E  E  Q    Q    Q       H        H           H        Q    Q     
--------------------------------|-----------7--------|--L------------------|
--------------------------------|-----------8--------|--L------------------|
--------------------------------|-----------9--------|--L------------------|
--4--4-----------5----5----7----|--------------------|-----------7---------|
--2--2--2--2--2--3----3----5----|--------------------|-----------5----7----|
--------------------------------|--0-----------------|----------------5----|


  H        H           H        Q    Q       W                 
-----------7--------|--L------------------|-------------------|
-----------8--------|--L------------------|-------------------|
-----------9--------|--L------------------|-------------------|
--------------------|-----------5----7----|-------------------|
--------------------|-----------3----5----|-------------------|
--0-----------------|---------------------|--0----------------|


  W                   W                   W                   W                 
-------------------|-------------------|-------------------|-------------------|
-------------------|-------------------|-------------------|-------------------|
-------------------|-------------------|-------------------|-------------------|
-------------------|-------------------|-------------------|-------------------|
-------------------|--7----------------|--7----------------|--7----------------|
--L----------------|-------------------|-------------------|-------------------|


  W                   W                   W                 
-------------------|-------------------|-------------------|
-------------------|-------------------|-------------------|
-------------------|-------------------|-------------------|
-------------------|-------------------|-------------------|
--7----------------|--7----------------|--7----------------|
-------------------|-------------------|-------------------|


        |--3--|        |--3--|           |--3--|             
  E  E  E  E  E  E  E  E  E  E     E  E  E  E  E  Q    Q     
--------------------------------|---------------------------|
--------------------------------|---------------------------|
--------------------------------|---------------------------|
--4--------------4--------------|--4--------------5----7----|
--2--2--2--2--2--2--2--2--2--2--|--2--2--2--2--2--3----5----|
--------------------------------|---------------------------|


  W                   W                   W                   W                 
-------------------|-------------------|-------------------|-------------------|
-------------------|-------------------|-------------------|-------------------|
-------------------|-------------------|-------------------|-------------------|
-------------------|-------------------|-------------------|-------------------|
-------------------|-------------------|--7----------------|--L----------------|
--0----------------|--L----------------|-------------------|-------------------|


  W                   W                   W                   W                 
-------------------|-------------------|-------------------|-------------------|
-------------------|-------------------|-------------------|-------------------|
-------------------|-------------------|-------------------|-------------------|
-------------------|-------------------|-------------------|-------------------|
--7----------------|--7----------------|--7----------------|--7----------------|
-------------------|-------------------|-------------------|-------------------|


                                                |--3--|        |--3--|   
  W                   W                   E  E  E  E  E  E  E  E  E  E   
-------------------|-------------------|--------------------------------|
-------------------|-------------------|--------------------------------|
-------------------|-------------------|--------------------------------|
-------------------|-------------------|--4--------------4--------------|
--7----------------|--7----------------|--2--2--2--2--2--2--2--2--2--2--|
-------------------|-------------------|--------------------------------|


        |--3--|                                 
  E  E  E  E  E  Q    Q       W                 
---------------------------|-------------------|
---------------------------|-------------------|
---------------------------|-------------------|
--4--------------5----7----|-------------------|
--2--2--2--2--2--3----5----|-------------------|
---------------------------|--0----------------|


   E    E    E    E    E    E   E   E     W                   W                 
---------------------------------------|-------------------|-------------------|
---------------------------------------|-------------------|-------------------|
---------------------------------------|-------------------|-------------------|
---------------------------------------|--5----------------|--7----------------|
---------------------------------------|--3----------------|--5----------------|
--15\--14\--13\--12\--11\--10\--9\--8--|-------------------|-------------------|


  W                   W                    W                 
-------------------|-------------------|--------------------|
-------------------|-------------------|--------------------|
-------------------|-------------------|--------------------|
--4----------------|--9----------------|--12----------------|
--2----------------|--7----------------|--10----------------|
-------------------|-------------------|--------------------|


                                          |--3--|  |--3--|  |--3--|  |--3--|   
  W                   W                   E  E  E  E  E  E  E  E  E  E  E  E   
-------------------|-------------------|--------------------------------------|
-------------------|-------------------|--------------------------------------|
-------------------|-------------------|--------------------------------------|
--5----------------|--7----------------|--7--7--7--7--7--7--7--7--7--7--7--7--|
--3----------------|--5----------------|--5--5--5--5--5--5--5--5--5--5--5--5--|
-------------------|-------------------|--------------------------------------|


    W                   W                   W                 
|--------------------|-------------------|-------------------|
|--------------------|-------------------|-------------------|
|*-------------------|-------------------|-------------------|
|*--0----------------|--7----------------|--9----------------|
|---2----------------|--5----------------|--7----------------|
|---3----------------|-------------------|-------------------|


  W                   W                   W                   W                 
-------------------|-------------------|-------------------|-------------------|
-------------------|-------------------|-------------------|-------------------|
-------------------|-------------------|-------------------|-------------------|
--4----------------|--5----------------|--5----------------|--7----------------|
--2----------------|--3----------------|--5----------------|--7----------------|
-------------------|-------------------|--3----------------|--5----------------|


  W                     W                   W                 
--------------------||-------------------|-------------------|
--------------------||-------------------|-------------------|
-------------------*||-------------------|-------------------|
--7----------------*||--5----------------|--7----------------|
--5-----------------||--3----------------|--5----------------|
--------------------||-------------------|-------------------|


                               |--3--|  |--3--|                               
  W                   H        E  E  E  E  E  E         H         Q     Q     
-------------------|-----------------------------||--------------------------|
-------------------|-----------------------------||---/17--------19----20----|
-------------------|-----------------------------||*-------------------------|
--0----------------|--L--------------------------||*-------------------------|
--2----------------|--L--------------------------||--------------------------|
--3----------------|--L--------3--3--3--3--3--3--||--------------------------|


   Q      Q     Q     Q        W                     W                    
---------------------------|---------------------|----------------------||
--20b----20----19----15----|--13~----------------|--15~-----------------||
---------------------------|---------------------|---------------------*||
---------------------------|---------------------|---------------------*||
---------------------------|---------------------|----------------------||
---------------------------|---------------------|----------------------||


                                                    |--3--|        |--3--|   
   W                     W                    E  E  E  E  E  E  E  E  E  E   
---------------------|---------------------|--------------------------------|
--13~----------------|--15~----------------|--------------------------------|
---------------------|---------------------|--------------------------------|
---------------------|---------------------|--4--------------4--------------|
---------------------|---------------------|--2--2--2--2--2--2--2--2--2--2--|
---------------------|---------------------|--------------------------------|


        |--3--|                     |--3--|        |--3--|   
  E  E  E  E  E  Q    Q       E  E  E  E  E  E  E  E  E  E   
---------------------------|--------------------------------|
---------------------------|--------------------------------|
---------------------------|--------------------------------|
--4--------------5----7----|--9--------------9--------------|
--2--2--2--2--2--3----5----|--7--7--7--7--7--7--7--7--7--7--|
---------------------------|--------------------------------|


        |--3--|        |--3--|           |--3--|        |--3--|   
  E  E  E  E  E  E  E  E  E  E     E  E  E  E  E  E  E  E  E  E   
--------------------------------|--------------------------------|
--------------------------------|--------------------------------|
--------------------------------|--------------------------------|
--8--------------8--------------|--9--------------9--------------|
--7--7--7--7--7--7--7--7--7--7--|--7--7--7--7--7--7--7--7--7--7--|
--------------------------------|--------------------------------|


        |--3--|   |---3---|  |--3--|           |--3--|        |--3--|   
  E  E  E  E  E   E   E   E  E  E  E     E  E  E  E  E  E  E  E  E  E   
--------------------------------------|--------------------------------|
--------------------------------------|--------------------------------|
--------------------------------------|--------------------------------|
--8-----------------------------------|--9--------------9--------------|
--7--7--7--7--7--10--10--10--7--7--7--|--7--7--7--7--7--7--7--7--7--7--|
--------------------------------------|--------------------------------|


        |--3--|        |--3--|           |--3--|        |--3--|   
  E  E  E  E  E  E  E  E  E  E     E  E  E  E  E  E  E  E  E  E   
--------------------------------|--------------------------------|
--------------------------------|--------------------------------|
--------------------------------|--------------------------------|
--8--------------8--------------|--9--------------9--------------|
--7--7--7--7--7--7--7--7--7--7--|--7--7--7--7--7--7--7--7--7--7--|
--------------------------------|--------------------------------|


        |--3--|   |---3---|  |--3--|                                           
  E  E  E  E  E   E   E   E  E  E  E     W                   W                 
--------------------------------------|-------------------|-------------------|
--------------------------------------|-------------------|-------------------|
--------------------------------------|-------------------|-------------------|
--8-----------------------------------|--5----------------|--7----------------|
--7--7--7--7--7--10--10--10--7--7--7--|--3----------------|--5----------------|
--------------------------------------|-------------------|-------------------|


  W                   W                    W                 
-------------------|-------------------|--------------------|
-------------------|-------------------|--------------------|
-------------------|-------------------|--------------------|
--4----------------|--9----------------|--12----------------|
--2----------------|--7----------------|--10----------------|
-------------------|-------------------|--------------------|


  W                   W                    E    E    E    E    E    E   E   E   
-------------------|-------------------|---------------------------------------|
-------------------|-------------------|---------------------------------------|
-------------------|-------------------|---------------------------------------|
--5----------------|--7----------------|---------------------------------------|
--3----------------|--5----------------|---------------------------------------|
-------------------|-------------------|--15\--14\--13\--12\--11\--10\--9\--8--|


    W                   W                   W                 
|--------------------|-------------------|-------------------|
|--------------------|-------------------|-------------------|
|*-------------------|-------------------|-------------------|
|*--0----------------|--7----------------|--9----------------|
|---2----------------|--5----------------|--7----------------|
|---3----------------|-------------------|-------------------|


  W                   W                   W                   W                 
-------------------|-------------------|-------------------|-------------------|
-------------------|-------------------|-------------------|-------------------|
-------------------|-------------------|-------------------|-------------------|
--4----------------|--5----------------|--5----------------|--7----------------|
--2----------------|--3----------------|--5----------------|--7----------------|
-------------------|-------------------|--3----------------|--5----------------|


  W                     W                   W                 
--------------------||-------------------|-------------------|
--------------------||-------------------|-------------------|
-------------------*||-------------------|-------------------|
--7----------------*||--5----------------|--7----------------|
--5-----------------||--3----------------|--5----------------|
--------------------||-------------------|-------------------|


  W                   H        Q     Q       H.              Q     
-------------------|----------------------|-----------------------|
-------------------|----------------------|-----------------------|
-------------------|----------------------|-----------------------|
--0----------------|-----------9b----L----|--9~------------7g9----|
--2----------------|----------------------|-----------------------|
--3----------------|----------------------|-----------------------|


  Q     Q    Q.      E     Q    Q    Q    Q         Q    Q    Q    Q      
------------------------|----------------------|-------------------------|
------------------------|----------------------|-------------------------|
------------------------|----------------------|-------------------------|
--7h----9---------------|----------------------|-------------------------|
-------------9~------9--|--7----9----6----7----|--7g9----6---------------|
------------------------|----------------------|--------------7----7\----|


  |--3--|  |--3--|  |--3--|  |--3--|     |--3--|  |--3--|  |--3--|  |--3--|   
  E  E  E  E  E  E  E  E  E  E  E  E     E  E  E  E  E  E  E  E  E  E  E  E   
--------------------------------------|--------------------------------------|
--------------------------------------|--------------------------------------|
--------------------------------------|--------------------------------------|
--------------------------------------|--------------------------------------|
--7--9--9--9--9--9--9--9--9--9--9--9--|--9--9--9--9--9--9--9--9--9--9--9--9--|
--5--7--7--7--7--7--7--7--7--7--7--7--|--7--7--7--7--7--7--7--7--7--7--7--7--|


  |--3--|  |--3--|  |--3--|  |--3--|     |--3--|  |--3--|  |--3--|  |--3--|   
  E  E  E  E  E  E  E  E  E  E  E  E     E  E  E  E  E  E  E  E  E  E  E  E   
--------------------------------------|--------------------------------------|
--------------------------------------|--------------------------------------|
--------------------------------------|--------------------------------------|
--------------------------------------|--------------------------------------|
--7--9--9--9--9--9--9--9--9--9--9--9--|--------------------------------------|
--5--7--7--7--7--7--7--7--7--7--7--7--|--8--7--5--7--5--3--5--3--2--3--2--0--|


                                     |---3---|               
   H         Q    E   E      Q       E  E    E   Q.      E   
-------------------------|----------------------------------|
--17~--------L----L--15--|--17br-----L--Lh--15--17------17--|
-------------------------|----------------------------------|
-------------------------|----------------------------------|
-------------------------|----------------------------------|
-------------------------|----------------------------------|


   |-----3-----|     |---3---|   |---3---|   
   Q     Q     Q     E   E   E   E   E   E   
--19----17----16----------------------------|
--------------------18--17--15--------------|
--------------------------------17--16--14--|
--------------------------------------------|
--------------------------------------------|
--------------------------------------------|


   |--6--|  |--6--|   |---3---|   |--|              
   S  S  S  S  S  S   S   S   S   S  E   Q    Q     
---------------------------------------------------|
---------------------------------------------------|
--17-16-14-----------------------------------------|
-----------17-15-14h-15p-14h-15p-14----------------|
------------------------------------16--14---------|
---------------------------------------------------|


  |--3--|  |--3--|  |--3--|  |--3--|     |--3--|  |--3--|  |--3--|  |--3--|   
  E  E  E  E  E  E  E  E  E  E  E  E     E  E  E  E  E  E  E  E  E  E  E  E   
--------------------------------------|--------------------------------------|
--------------------------------------|--------------------------------------|
--------------------------------------|--------------------------------------|
--------------------------------------|--------------------------------------|
--7--9--9--9--9--9--9--9--9--9--9--9--|--9--9--9--9--9--9--9--9--9--9--9--9--|
--5--7--7--7--7--7--7--7--7--7--7--7--|--7--7--7--7--7--7--7--7--7--7--7--7--|


  |--3--|  |--3--|  |--3--|  |--3--|     |--3--|  |--3--|  |--3--|  |--3--|   
  E  E  E  E  E  E  E  E  E  E  E  E     E  E  E  E  E  E  E  E  E  E  E  E   
--------------------------------------|--------------------------------------|
--------------------------------------|--------------------------------------|
--------------------------------------|--------------------------------------|
--------------------------------------|--------------------------------------|
--9--9--9--9--9--9--9--9--9--9--9--9--|--------------------------------------|
--7--7--7--7--7--7--7--7--7--7--7--7--|--8--7--5--7--5--3--5--3--2--3--2--0--|


                      |----3---|                 |------3-----|     
   H          Q       E   E    E      H          Q      Q     Q     
----------------------------------|--------------------------12----|
----------------------------------|--------------------12----------|
--14b--------14br-----L---Lp--12--|--14~--------14b----------------|
----------------------------------|--------------------------------|
----------------------------------|--------------------------------|
----------------------------------|--------------------------------|


                      |----3---|                  |-----3-----|     
   H          Q       E   E    E      E   Q.      Q     Q     Q     
----------------------------------|--------------------------------|
--15b-----------------------------|--------------------------------|
-------------14br-----L---Lp--12--|--14----------------12----14----|
----------------------------------|------14~------L----------------|
----------------------------------|--------------------------------|
----------------------------------|--------------------------------|


           |----3---|                                   
   Q       E   E    E   H            H        H         
----------------------------------|--------------------|
----------------------------------|--------------------|
--14br-----L---Lp--12--14~--------|--L-----------------|
----------------------------------|--------------------|
----------------------------------|--------------------|
----------------------------------|--------------------|


  |----3---|   |---3---|   |---3---|   |---3---|   
  E    E   E   E   E   E   E   E   E   E   E   E   
--------------------------------------------------|
--------------------------------------------------|
--------------------------------------------------|
--------------------------------------------------|
--9s--11--11--11--11--11--11--11--11--11--11--11--|
--7s---9---9---9---9---9---9---9---9---9---9---9--|


   |----3---|   |---3---|   |---3---|   |---3---|   
   E    E   E   E   E   E   E   E   E   E   E   E   
---------------------------------------------------|
---------------------------------------------------|
---------------------------------------------------|
---------------------------------------------------|
--12s--11--11--11--11--11--11--11--11--11--11--11--|
--10s---9---9---9---9---9---9---9---9---9---9---9--|


  |----3---|   |---3---|   |----3---|   |---3---|   
  E    E   E   E   E   E   E    E   E   E   E   E   
---------------------------------------------------|
---------------------------------------------------|
---------------------------------------------------|
---------------------------------------------------|
--9s--11--11--11--11--11--12s--11--11--11--11--11--|
--7s---9---9---9---9---9--10s---9---9---9---9---9--|


  |--3--|  |--3--|            
  E  E  E  E  E  E  H         
-----------------------------|
-----------------------------|
-----------------------------|
-----------------------------|
--7--7--7--7--7--7--9--------|
--5--5--5--5--5--5--7--------|


  |----3---|   |---3---|   |---3---|   |---3---|   
  E    E   E   E   E   E   E   E   E   E   E   E   
--------------------------------------------------|
--------------------------------------------------|
--------------------------------------------------|
--------------------------------------------------|
--9s--11--11--11--11--11--11--11--11--11--11--11--|
--7s---9---9---9---9---9---9---9---9---9---9---9--|


   |----3---|   |---3---|   |---3---|   |---3---|   
   E    E   E   E   E   E   E   E   E   E   E   E   
---------------------------------------------------|
---------------------------------------------------|
---------------------------------------------------|
---------------------------------------------------|
--12s--11--11--11--11--11--11--11--11--11--11--11--|
--10s---9---9---9---9---9---9---9---9---9---9---9--|


  |----3---|   |---3---|   |----3---|   |---3---|   
  E    E   E   E   E   E   E    E   E   E   E   E   
---------------------------------------------------|
---------------------------------------------------|
---------------------------------------------------|
---------------------------------------------------|
--9s--11--11--11--11--11--12s--11--11--11--11--11--|
--7s---9---9---9---9---9--10s---9---9---9---9---9--|


  |--3--|  |--3--|               |--3-|                  
  E  E  E  E  E  E  H            E    Q    H.            
-----------------------------|--------------------------|
-----------------------------|--------------------------|
-----------------------------|--------------------------|
-----------------------------|--------------------------|
--7--7--7--7--7--7--9--------|--11s--13----L------------|
--5--5--5--5--5--5--7--------|---9s--11----L------------|


   |--3-|                     |--3-|          |--3-|          
   E    Q    H.               E    Q    Q     E    Q    Q     
--------------------------|----------------------------------|
--------------------------|----------------------------------|
--------------------------|----------------------------------|
--------------------------|----------------------------------|
--14s--13----L------------|--11s--13----L----14s--13----L----|
--12s--11----L------------|---9s--11----L----12s--11----L----|


                         |--3-|                     |--3-|                  
  H         H            E    Q    H.               E    Q    H.            
---------------------|--------------------------|--------------------------|
---------------------|--------------------------|--------------------------|
---------------------|--------------------------|--------------------------|
---------------------|--------------------------|--------------------------|
--9--------11--------|--11s--13----L------------|--14s--13----L------------|
--7---------9--------|---9s--11----L------------|--12s--11----L------------|


   |--3-|          |--3-|                                
   E    Q    Q     E    Q    Q       H         H         
----------------------------------|---------------------|
----------------------------------|---------------------|
----------------------------------|---------------------|
----------------------------------|---------------------|
--11s--13----L----14s--13----L----|--9--------11--------|
---9s--11----L----12s--11----L----|--7---------9--------|


    |--3--|  |--3--|  |--3--|          |--3--|  |--3--|  |--3--|        
    E  E  E  E  E  E  E  E  E  Q       E  E  E  E  E  E  E  E  E  Q     
|-----------------------------------|----------------------------------|
|-----------------------------------|----------------------------------|
|*----------------------------------|----------------------------------|
|*-----------------------------9----|-----------------------------7----|
|------------------------------7----|-----------------------------5----|
|---0--0--0--0--0--0--0--0--0-------|--0--0--0--0--0--0--0--0--0-------|


  |--3--|  |--3--|  |--3--|                                                    
  E  E  E  E  E  E  E  E  E  Q       H        H             H        H         
----------------------------------|---------------------||--------------------|
----------------------------------|---------------------||--------------------|
----------------------------------|--------------------*||--------------------|
-----------------------------9----|--0--------7--------*||--0--------7--------|
-----------------------------7----|--2--------5---------||--2--------5--------|
--0--0--0--0--0--0--0--0--0-------|--3------------------||--3-----------------|


  W                   W                   W                   W                 
-------------------|-------------------|-------------------|-------------------|
-------------------|-------------------|-------------------|-------------------|
-------------------|-------------------|-------------------|-------------------|
--0----------------|--L----------------|--7----------------|--L----------------|
--2----------------|--L----------------|--5----------------|--L----------------|
--3----------------|--L----------------|-------------------|-------------------|


        |--3--|        |--3--|           |--3--|        |--3--|   
  E  E  E  E  E  E  E  E  E  E     E  E  E  E  E  E  E  E  E  E   
--------------------------------|--------------------------------|
--------------------------------|--------------------------------|
--------------------------------|--------------------------------|
--4--------------4--------------|--4--------------4--------------|
--2--2--2--2--2--2--2--2--2--2--|--2--2--2--2--2--2--2--2--2--2--|
--------------------------------|--------------------------------|


  Q    Q    Q    Q       Q    Q    Q    Q         W                 
----------------------|----------------------||--------------------|
----------------------|----------------------||--------------------|
----------------------|----------------------||*-------------------|
--4----2--------------|--4----2--------------||*--0----------------|
--2----0----5----4----|--2----0----5----4----||---2----------------|
------------3----2----|------------3----2----||---3----------------|


  W                   W                   W                   W                 
-------------------|-------------------|-------------------|-------------------|
-------------------|-------------------|-------------------|-------------------|
-------------------|-------------------|-------------------|-------------------|
--7----------------|--9----------------|--4----------------|--5----------------|
--5----------------|--7----------------|--2----------------|--3----------------|
-------------------|-------------------|-------------------|-------------------|


  W                   W                   W                   
-------------------|-------------------|--------------------||
-------------------|-------------------|--------------------||
-------------------|-------------------|-------------------*||
--5----------------|--7----------------|--7----------------*||
--5----------------|--7----------------|--5-----------------||
--3----------------|--5----------------|--------------------||


  W                   W                   W                   W                 
-------------------|-------------------|-------------------|-------------------|
-------------------|-------------------|-------------------|-------------------|
-------------------|-------------------|-------------------|-------------------|
--5----------------|--7----------------|--0----------------|--L----------------|
--3----------------|--5----------------|--2----------------|--L----------------|
-------------------|-------------------|--3----------------|--L----------------|


  W                   W                 
-------------------|-------------------|
-------------------|-------------------|
-------------------|-------------------|
--5----------------|--7----------------|
--3----------------|--5----------------|
-------------------|-------------------|


  |--3--|  |--3--|  |--3--|   |---3---|   
  E  E  E  E  E  E  E  E  E   E   E   E   
-----------------------------------------|
-----------------------------------------|
-----------------------------------------|
-----------------------------------------|
--7--7--7--7--7--7--9--9--9--10--10--10--|
-----------------------------------------|


  |--3--|   |---3---|  |--3--|  |--3--|                       
  E  E  E   E   E   E  E  E  E  E  E  E     W                 
-----------------------------------------|-------------------|
-----------------------------------------|-------------------|
-----------------------------------------|-------------------|
--7--7--7--------------------------------|--5----------------|
-----------10--10--10--9--9--9--5--5--5--|--3----------------|
-----------------------------------------|-------------------|


                                                       |--3--|   
  W                   W                   H.           E  E  E   
-------------------|-------------------|------------------------|
-------------------|-------------------|------------------------|
-------------------|-------------------|------------------------|
--7----------------|--0----------------|--L---------------------|
--5----------------|--2----------------|--L---------------------|
-------------------|--3----------------|--L------------3--3--2--|


                                      |--3--|                          
  E  E  Q    H           H.           E  E  E     E  E  Q    H         
----------------------|------------------------|----------------------|
----------------------|------------------------|----------------------|
----------------------|------------------------|----------------------|
-------------0--------|--L---------------------|-------------0--------|
-------------2--------|--L---------------------|-------------2--------|
--3----------3--------|--L------------3--3--2--|--3----------3--------|


               |--3--|                                                
  H.           E  E  E     E  E  Q    E  E  Q       W                 
------------------------|------------------------|-------------------|
------------------------|------------------------|-------------------|
------------------------|------------------------|-------------------|
--L---------------------|------------------------|-------------------|
--L---------------------|------------------------|--2----------------|
--L------------3--3--2--|--3----------2----------|--0----------------|


  W                   W                   W                          
-------------------|-------------------|-------------------|-------||
-------------------|-------------------|-------------------|-------||
-------------------|-------------------|-------------------|-------||
-------------------|-------------------|-------------------|-------||
--L----------------|--L----------------|--L----------------|-------||
--L----------------|--L----------------|--L----------------|-------||




Duration Legend
---------------
W - whole
H - half
Q - quarter
E - 8th
S - 16th
T - 32nd
X - 64th
. - note dotted
|-n-|  - n-tuplets


Tablature Legend
----------------
L - tied note
x - dead note
g - grace note
(n) - ghost note
> - accentuded note
NH - natural harmonic
AH - artificial harmonic
TH - tapped harmonic
SH - semi harmonic
PH - pitch harmonic
h - hammer on
p - pull off
b - bend
br - bendRelease
pb - preBend
pbr - preBendRelease
brb - bendReleaseBend
\n/ - tremolo bar dip
\n - tremolo bar dive
-/n - tremolo bar Release up
/n\ - tremolo bar inverted dip
/n - tremolo bar return
-\n - tremolo bar Release down
S - shift slide
s - legato slide
/ -  slide into from below or out of upwards
\ -  slide into from above or out of downwards
~ - vibrato
W - wide vibrato
tr - trill
TP - tremolo picking
T - tapping
S - slap
P - pop
< - fade in
^ - brush up
v - brush down
comments
We did not receive enough feedback on this tab! Please rate:
print report bad tab
1 2 3 4 5
I want to post or [tab]
guest
You may want to rate the tab now too:
select rating
Please do not post tabs as comments. Select "correction" instead!