Oops, an error
Loading. Please wait.

Lust For Life Bass Tab

ver1
ver1

Whole song

Interactive

More versions @911Tabs.com
238 views 1 this week
no commentswrite comment
1 2 3 4 5
please rate
Autoscroll
+/-
esc
set tempo
stop
Difficulty
novice
NEW! There's an official Ultimate Guitar app which is ideal
for learning songs when you're away from computer. Get the app
WARNING: You are trying to view
                                    content from Ultimate-Guitar.com
                                    in an unauthorized application,
                                    which is prohibited.

                                    Please use an official Ultimate
                                    Guitar Tabs application for iPhone,
                                    iPad or Android to access legitimate
                                    chords, guitar, bass, and drum tabs
                                    from Ultimate-Guitar.com database.

                                    Type "ultimate guitar tabs" in Apple
                                    App Store's or Android Market's
                                    search to find the application.
Lust For Life                                   


                                                                       Gamma Ray
Dirk



     E  E  Q    H           W                   E  E  Q    H         
G||----------------------|-------------------|----------------------|
D||----------------------|-------------------|----------------------|
A||--7-------------------|-------------------|--7--7----------------|
E||----------------------|-------------------|----------------------|


  W                   W                   W                 
-------------------|-------------------|-------------------|
-------------------|-------------------|-------------------|
-------------------|--5----------------|--L----------------|
-------------------|-------------------|-------------------|


  E  E  Q    H           W                   E  E  E  E  H         
----------------------|-------------------|-----------------------|
----------------------|-------------------|-----------------------|
--7--7----------------|-------------------|--7--7--7--------------|
----------------------|-------------------|-----------------------|


  W                   E  E  Q    H           W                 
-------------------|----------------------|-------------------|
-------------------|----------------------|-------------------|
-------------------|----------------------|-------------------|
-------------------|--0--0----------------|-------------------|


  W                   W                   W                 
--7----------------|--L----------------|-------------------|
--7----------------|--L----------------|-------------------|
--5----------------|--L----------------|--7----------------|
-------------------|-------------------|-------------------|


  W                      E  E  E  E  E  E  E  E     E  E  E  E  E  E  Q     
--------------------||---------------------------|-------------------------|
--------------------||*--------------------------|-------------------------|
--L\----------------||*--------7--------7--------|--7--------7--------7----|
--------------------||---0--0-----0--0-----0--0--|-----0--0-----0--0-------|


  E  E  E  E  E  E  E  E     E  E  E  E  E  E  Q       
--------------------------|--------------------------||
--------------------------|-------------------------*||
--------7--------7--------|--7--------7--------7----*||
--0--0-----0--0-----0--0--|-----0--0-----0--0--------||


  E  E  E  E  E  E  E  E     E  E  E  E  E  E  E  E   
--------------------------|--------------------------|
--------------------------|--------------------------|
--7--7--7--7--7--7--7--7--|--7--7--7--7--7--7--7--7--|
--------------------------|--------------------------|


  E  E  E  E  E  E  E  E     E  E  E  E  E  E  E  E   
--------------------------|--------------------------|
--------------------------|--------------------------|
--7--7--7--7--7--7--7--7--|--7--7--7--7--7--7--7--7--|
--------------------------|--------------------------|


  E  E  E  E  E  E  E  E     Q    Q    Q    Q       E  E  E  E  E  E  E  E   
--------------------------|----------------------|--------------------------|
--------------------------|----------------------|--------------------------|
--5--5--5--5--5--5--5--5--|--5----4----5----6----|--------7--------7--------|
--------------------------|----------------------|--0--0-----0--0-----0--0--|


  E  E  E  E  E  E  Q       E  E  E  E  E  E  E  E     Q.     E  Q    Q     
-------------------------|--------------------------|----------------------|
-------------------------|--------------------------|--5------7--L----5----|
--7--------7--------7----|--------7--------7--------|----------------------|
-----0--0-----0--0-------|--0--0-----0--0-----0--0--|----------------------|


  E  E  E  E  E  E  E  E     E  E  E  E  E  E  E  E   
--------------------------|--------------------------|
--------------------------|--------------------------|
--7--7--7--7--7--7--7--7--|--7--7--7--7--7--7--7--7--|
--------------------------|--------------------------|


  E  E  E  E  E  E  E  E     E  E  E  E  E  E  E  E   
--------------------------|--------------------------|
--------------------------|--------------------------|
--7--7--7--7--7--7--7--7--|--7--7--7--7--7--7--7--7--|
--------------------------|--------------------------|


  E  E  E  E  E  E  E  E     Q    Q    Q    Q       E  E  E  E  E  E  E  E   
--------------------------|----------------------|--------------------------|
--------------------------|----------------------|--------------------------|
--5--5--5--5--5--5--5--5--|--5----4----5----6----|--------7--------7--------|
--------------------------|----------------------|--0--0-----0--0-----0--0--|


  E  E  E  E  E  E  Q       E  E  E  E  E  E  E  E     E  E  E  E  E  E  Q     
-------------------------|--------------------------|-------------------------|
-------------------------|--------------------------|-----7--4--4--5--7--5----|
--7--------7--------7----|--------7--------7--------|--5----------------------|
-----0--0-----0--0-------|--0--0-----0--0-----0--0--|-------------------------|


  E   E  E  E  E  E  E  E     E   E  E  E  E  E  E  E   
---------------------------|---------------------------|
---------------------------|---------------------------|
--2h--3--3--3--3--3--3--3--|--2h--3--3--3--3--3--3--3--|
---------------------------|---------------------------|


  E   E  E  E  E  E  E  E     E   E  E  E  E  E  E  E   
---------------------------|---------------------------|
---------------------------|---------------------------|
--2h--3--3--3--3--3--3--3--|--2h--3--3--3--3--3--3--3--|
---------------------------|---------------------------|


  E   E  E  E  E  E  E  E     E   E  E  E  E  E  E  E   
---------------------------|---------------------------|
---------------------------|---------------------------|
---------------------------|---------------------------|
--2h--3--3--3--3--3--3--3--|--2h--3--3--3--3--3--3--3--|


  E   E  E  E  E  E  E  E     E   E  E  E  E  E  E  E   
---------------------------|---------------------------|
---------------------------|---------------------------|
---------------------------|---------------------------|
--2h--3--3--3--3--3--3--3--|--2h--3--3--3--3--3--3--3--|


  E  E  E  E  E  E  E  E     E  E  E  E  E  E  E  E   
--------------------------|--------------------------|
--0--0--0--0--0--0--0--0--|--0--0--0--0--0--0--4--5--|
--------------------------|--------------------------|
--------------------------|--------------------------|


  E  E  E  E  E  E  E  E     E  E  E  E  E  E  E  E   
--------------------------|--------------------------|
--7--7--7--7--7--7--7--7--|--7--7--7--7--7--7--7--7--|
--------------------------|--------------------------|
--------------------------|--------------------------|


  E  E  E  E  E  E  E  E     E  E  E  E  E  E  E  E   
--------------------5--7--|--9--7--5-----------------|
-----------5--7--9--------|-----------9--7--5--------|
--5--7--9-----------------|--------------------9--7--|
--------------------------|--------------------------|


  E  E  E  E  E  E  E  E     E  E  E  E  E  E  E  E   
--------------------------|--------------------------|
--------------------------|--------------------------|
--2-----2--2--2-----2--2--|--2-----2--2--2-----0-----|
--------------------------|--------------------------|


  E  E  E  E  E  E  E  E     E  E  E  E  E  E  E  E   
--------------------------|--------------------------|
--------------------------|--------------------------|
--2-----2--2--2-----2--2--|--2--3--2--0--2--0--------|
--------------------------|--------------------3--2--|


  E  E  E  E  E  E  E  E     E  E  E  E  E  E  E  E   
--------------------------|--------------------------|
--------------------------|--------------------------|
--------------------------|--------------------------|
--3--3--3--3--3--3--3--3--|--3--3--3--3--3--3--3--3--|


  E  E  E  E  E  E  E  E     Q.     E  Q    Q       E  E  E  E  E  E  E  E   
--------------------------|----------------------|--------------------------|
--------------------------|----------------------|--------------------------|
--------------------------|---------0--L----2----|--5--5--5--5--5--5--5--5--|
--3--3--3--3--3--3--3--3--|--3-------------------|--------------------------|


  E  E  E  E  E  E  E  E     E  E  E  E  E  E  E  E     E  E  E  E  E  E  Q     
--------------------------|--------------------------|-------------------------|
--------------------------|--------------------------|-------------------------|
--5--5--5--5--5--5--5--5--|--5--5--5--5--5--5--5--5--|--5--5--5--5--5--5--5----|
--------------------------|--------------------------|-------------------------|


  E  E  E  E  E  E  E  E     E  E  E  E  E  E  E  E   
--------------------------|--------------------------|
--------------------------|--------------------------|
--------------------------|--------------------------|
--5--5--5--5--5--5--5--5--|--3--3--3--3--3--3--3--3--|


  E  E  E  E  E  E  E  E     E  E  E  E  E  E  E  E   
--------------------------|--------------------------|
--------------------------|--------------------------|
--5--5--5--5--5--5--5--5--|--------------------------|
--------------------------|--5--5--5--5--5--5--5--5--|


  E  E  E  E  E  E  E  E     E  E  E  E  E  E  E  E   
--------------------------|--------------------------|
--------------------------|--------------------------|
--------------------------|--------------------------|
--5--5--5--5--5--5--5--5--|--3--3--3--3--3--3--3--3--|


  E  E  E  E  E  E  E  E     E  E  E  E  E  E  Q       E  E  E  E  E  E  E  E   
--------------------------|-------------------------|--------------------------|
--------------------------|-------------------------|--2--2--2--2--2--2--2--2--|
--5--5--5--5--5--5--5--5--|-------------------------|--------------------------|
--------------------------|--5--5--5--5--5--3--0----|--------------------------|


  E  E  E  E  E  E  E  E     E  E  E  E  E  E  E  E   
--------------------------|--------------------------|
--2--2--2--2--2--2--2--2--|--2--2--2--2--2--2--2--2--|
--------------------------|--------------------------|
--------------------------|--------------------------|


  E  E  E  E  E  E  E  E     E  E  E  E  E  E  E  E   
--------------------------|--------------------------|
--2--2--2--2--2--2--2--2--|--2--2--2--2--2--2--2--2--|
--------------------------|--------------------------|
--------------------------|--------------------------|


  E  E  E  E  E  E  E  E     E  E  E  E  E  E  E  E     E  E  E  E  E  E  Q     
--------------------------|--4--2--0-----2--0--------|--0----------------------|
--2--2--2--2--2--2--2-----|-----------4--------4--2--|-----4--2--1--2----------|
--------------------------|--------------------------|-------------------------|
--------------------------|--------------------------|-------------------------|


  E  E  E  E  E  E  E  E     E  E  E  E  E  E  E  E   
--------------------------|--------------------------|
--------------------------|--------------------------|
--7--7--7--7--7--7--7--7--|--7--7--7--7--7--7--7--7--|
--------------------------|--------------------------|


  E  E  E  E  E  E  E  E     E  E  E  E  E  E  E  E   
--------------------------|--------------------------|
--------------------------|--------------------------|
--7--7--7--7--7--7--7--7--|--7--7--7--7--7--7--7--7--|
--------------------------|--------------------------|


  E  E  E  E  E  E  E  E     Q    Q    Q    Q       E  E  E  E  E  E  E  E   
--------------------------|----------------------|--------------------------|
--------------------------|----------------------|--------------------------|
--5--5--5--5--5--5--5--5--|--5----4----5----6----|--------7--------7--------|
--------------------------|----------------------|--0--0-----0--0-----0--0--|


  E  E  E  E  E  E  Q       E  E  E  E  E  E  E  E     Q.     E  Q    Q     
-------------------------|--------------------------|----------------------|
-------------------------|--------------------------|--5------7--L----5----|
--7--------7--------7----|--------7--------7--------|----------------------|
-----0--0-----0--0-------|--0--0-----0--0-----0--0--|----------------------|


  E  E  E  E  E  E  E  E     E  E  E  E  E  E  E  E   
--------------------------|--------------------------|
--------------------------|--------------------------|
--7--7--7--7--7--7--7--7--|--7--7--7--7--7--7--7--7--|
--------------------------|--------------------------|


  E  E  E  E  E  E  E  E     E  E  E  E  E  E  E  E   
--------------------------|--------------------------|
--------------------------|--------------------------|
--7--7--7--7--7--7--7--7--|--7--7--7--7--7--7--7--7--|
--------------------------|--------------------------|


  E  E  E  E  E  E  E  E     Q    Q    Q    Q       E  E  E  E  E  E  E  E   
--------------------------|----------------------|--------------------------|
--------------------------|----------------------|--------------------------|
--5--5--5--5--5--5--5--5--|--5----4----5----6----|--------7--------7--------|
--------------------------|----------------------|--0--0-----0--0-----0--0--|


  E  E  E  E  E  E  Q       E  E  E  E  E  E  E  E     E  E  E  E  E  E  Q     
-------------------------|--------------------------|-------------------------|
-------------------------|--------------------------|-----7--4--4--5--7--5----|
--7--------7--------7----|--------7--------7--------|--5----------------------|
-----0--0-----0--0-------|--0--0-----0--0-----0--0--|-------------------------|


  E   E  E  E  E  E  E  E     E   E  E  E  E  E  E  E   
---------------------------|---------------------------|
---------------------------|---------------------------|
--2h--3--3--3--3--3--3--3--|--2h--3--3--3--3--3--3--3--|
---------------------------|---------------------------|


  E   E  E  E  E  E  E  E     E   E  E  E  E  E  E  E   
---------------------------|---------------------------|
---------------------------|---------------------------|
--2h--3--3--3--3--3--3--3--|--2h--3--3--3--3--3--3--3--|
---------------------------|---------------------------|


  E   E  E  E  E  E  E  E     E   E  E  E  E  E  E  E   
---------------------------|---------------------------|
---------------------------|---------------------------|
---------------------------|---------------------------|
--2h--3--3--3--3--3--3--3--|--2h--3--3--3--3--3--3--3--|


  E   E  E  E  E  E  E  E     E   E  E  E  E  E  E  E   
---------------------------|---------------------------|
---------------------------|---------------------------|
---------------------------|---------------------------|
--2h--3--3--3--3--3--3--3--|--2h--3--3--3--3--3--3--3--|


  E  E  E  E  E  E  E  E     E  E  E  E  E  E  E  E   
--------------------------|--------------------------|
--0--0--0--0--0--0--0--0--|--0--0--0--0--0--0--4--5--|
--------------------------|--------------------------|
--------------------------|--------------------------|


  E  E  E  E  E  E  E  E     E  E  E  E  E  E  E  E   
--------------------------|--------------------------|
--7--7--7--7--7--7--7--7--|--7--7--7--7--7--7--7--7--|
--------------------------|--------------------------|
--------------------------|--------------------------|


  E  E  E  E  E  E  E  E     E  E  E  E  E  E  E  E   
--------------------5--7--|--9--7--5-----------------|
-----------5--7--9--------|-----------9--7--5--------|
--5--7--9-----------------|--------------------9--7--|
--------------------------|--------------------------|


  E  E  E  E  E  E  E  E     E  E  E  E  E  E  E  E   
--------------------------|--------------------------|
--------------------------|--------------------------|
--2-----2--2--2-----2--2--|--2-----2--2--2-----0-----|
--------------------------|--------------------------|


  E  E  E  E  E  E  E  E     E  E  E  E  E  E  E  E   
--------------------------|--------------------------|
--------------------------|--------------------------|
--2-----2--2--2-----2--2--|--2--3--2--0--2--0--------|
--------------------------|--------------------3--2--|


  E  E  E  E  E  E  E  E     E  E  E  E  E  E  E  E   
--------------------------|--------------------------|
--------------------------|--------------------------|
--------------------------|--------------------------|
--3--3--3--3--3--3--3--3--|--3--3--3--3--3--3--3--3--|


  E  E  E  E  E  E  E  E     Q.     E  Q    Q       E  E  E  E  E  E  E  E   
--------------------------|----------------------|--------------------------|
--------------------------|----------------------|--------------------------|
--------------------------|---------0--L----2----|--5--5--5--5--5--5--5--5--|
--3--3--3--3--3--3--3--3--|--3-------------------|--------------------------|


  E  E  E  E  E  E  E  E     E  E  E  E  E  E  E  E     E  E  E  E  E  E  Q     
--------------------------|--------------------------|-------------------------|
--------------------------|--------------------------|-------------------------|
--5--5--5--5--5--5--5--5--|--5--5--5--5--5--5--5--5--|--5--5--5--5--5--5--5----|
--------------------------|--------------------------|-------------------------|


  E  E  E  E  E  E  E  E     E  E  E  E  E  E  E  E   
--------------------------|--------------------------|
--------------------------|--------------------------|
--------------------------|--------------------------|
--5--5--5--5--5--5--5--5--|--3--3--3--3--3--3--3--3--|


  E  E  E  E  E  E  E  E     E  E  E  E  E  E  E  E   
--------------------------|--------------------------|
--------------------------|--------------------------|
--5--5--5--5--5--5--5--5--|--------------------------|
--------------------------|--5--5--5--5--5--5--5--5--|


  E  E  E  E  E  E  E  E     E  E  E  E  E  E  E  E   
--------------------------|--------------------------|
--------------------------|--------------------------|
--------------------------|--------------------------|
--5--5--5--5--5--5--5--5--|--3--3--3--3--3--3--3--3--|


  E  E  E  E  E  E  E  E     E  E  E  E  E  E  Q       E  E  E  E  E  E  E  E   
--------------------------|-------------------------|--------------------------|
--------------------------|-------------------------|--2--2--2--2--2--2--2--2--|
--5--5--5--5--5--5--5--5--|-------------------------|--------------------------|
--------------------------|--5--5--5--5--5--3--0----|--------------------------|


  E  E  E  E  E  E  E  E     E  E  E  E  E  E  E  E   
--------------------------|--------------------------|
--2--2--2--2--2--2--2--2--|--2--2--2--2--2--2--2--2--|
--------------------------|--------------------------|
--------------------------|--------------------------|


  E  E  E  E  E  E  E  E     E  E  E  E  E  E  E  E   
--------------------------|--------------------------|
--2--2--2--2--2--2--2--2--|--2--2--2--2--2--2--2--2--|
--------------------------|--------------------------|
--------------------------|--------------------------|


  E  E  E  E  E  E  E  E     H        H           H        H         
--------------------------|--------------------|--------------------|
--2--2--2--2--2--2--2-----|--2--------0--------|--------------------|
--------------------------|--------------------|--3--------0--------|
--------------------------|--------------------|--------------------|


  W                   H        Q    Q       W                 
-------------------|---------------------|-------------------|
-------------------|---------------------|-------------------|
-------------------|----------------0----|-------------------|
-------------------|---------------------|-------------------|


  H        H           E  E  E  E  E  E  E  E     E  E  E  E  E  E  Q     
--------------------|--------------------------|-------------------------|
--------------------|--------------------------|-------------------------|
-----------0--------|--2--2--2--2--2--2--2--2--|--2--2--2--2--2--2--0----|
--------------------|--------------------------|-------------------------|


  E  E  E  E  E  E  E  E     E  E  E  E  H             E  E  E  E  E  E  E  E   
--------------------------|-----------------------||---------------------------|
--------------------------|-----------------------||*--2--2--2--2--2--2--2--2--|
--2--2--2--2--2--2--2--2--|--2--2--2--2--0--------||*--------------------------|
--------------------------|-----------------------||---------------------------|


  E  E  E  E  E  E  E  E     E  E  E  E  E  E  E  E   
--------------------------|--------------------------|
--2--2--2--2--2--2--2--2--|--2--2--2--2--2--2--2--2--|
--------------------------|--------------------------|
--------------------------|--------------------------|


  E  E  E  E  E  E  E  E        E  E  E  E  E  E  E  E   
---------------------------||---------------------------|
--2--2--2--2--2--2--2--2--*||*--2--2--2--2--2--2--2--2--|
--------------------------*||*--------------------------|
---------------------------||---------------------------|


  E  E  E  E  E  E  E  E     E  E  E  E  E  E  E  E   
--------------------------|--------------------------|
--2--2--2--2--2--2--2--2--|--2--2--2--2--2--2--2--2--|
--------------------------|--------------------------|
--------------------------|--------------------------|


  E  E  E  E  E  E  E  E     E  E  E  E  E  E  E  E   
--------------------------|--------------------------|
--2--2--2--2--2--2--2--2--|--2--2--2--2--2--2--2--2--|
--------------------------|--------------------------|
--------------------------|--------------------------|


  E  E  E  E  E  E  E  E     E  E  E  E  E  E  E  E   
--------------------------|--------------------------|
--2--2--2--2--2--2--2--2--|--2--2--2--2--2--2--2--2--|
--------------------------|--------------------------|
--------------------------|--------------------------|


  E  E  E  E  E  E  E  E       E  E  E  E  E  E  E  E   
---------------------------||--------------------------|
--2--2--2--2--2--2--2--2--*||--2--2--2--2--2--2--2--2--|
--------------------------*||--------------------------|
---------------------------||--------------------------|


  E  E  E  E  E  E  E  E     E  E  E  E  E  E  E  E   
--------------------------|--------------------------|
--2--2--2--2--2--2--2--2--|--2--2--2--2--2--2--2--2--|
--------------------------|--------------------------|
--------------------------|--------------------------|


  E  E  E  E  E  E  E  E     Q    Q    H           W                 
--------------------------|---------------------|-------------------|
--2--2--2--2--2--2--2--2--|--2------------------|-------------------|
--------------------------|---------------------|-------------------|
--------------------------|---------------------|-------------------|


  W                   H        H             E  E  E  E  E  E  E  E   
-------------------|--------------------||---------------------------|
-------------------|--2--------0--------||*--------------------------|
-------------------|--------------------||*--3--3--3--3--3--3--3--3--|
-------------------|--------------------||---------------------------|


  E  E  E  E  E  E  E  E     E  E  E  E  E  E  E  E   
--------------------------|--------------------------|
--------------------------|--------------------------|
--3--3--3--3--3--3--3--3--|--3--3--3--3--3--3--3--3--|
--------------------------|--------------------------|


  E  E  E  E  E  E  E  E     Q    Q    E  Q.        Q.     E  Q    Q     
--------------------------|----------------------|----------------------|
--------------------------|----------------------|---------5--L----4----|
--3--3--3--3--3--3--3--3--|-------7----L--5------|--7-------------------|
--------------------------|--0-------------------|----------------------|


  Q    H        Q       H.           Q          Q    Q    E  Q.      
---------------------|----------------------||----------------------|
---------------------|---------------------*||----------------------|
-------7--------5----|--7------------L\----*||-------7----L--5------|
---------------------|----------------------||--0-------------------|


  Q.     E  Q    Q       Q    H        Q       H.           Q      
----------------------|---------------------|---------------------|
---------5--L----4----|---------------------|---------------------|
--7-------------------|-------7--------5----|--7------------L\----|
----------------------|---------------------|---------------------|


  E  E  E  E  E  E  E  E     E  E  E  E  E  E  E  E   
--------------------------|--------------------------|
--------------------------|--------------------------|
--5--5--5--5--5--5--5--5--|--5--5--5--5--5--5--5--5--|
--------------------------|--------------------------|


  E  E  E  E  E  E  E  E     E  E  E  E  E  E  E  E     E  E  E  E  E  E  Q     
--------------------------|--------------------------|-------------------------|
--------------------------|--------------------------|-------------------------|
--4--5--5--5--5--5--5--5--|--5--5--5--5--5--5--5--5--|--5--5--5--5--5----------|
--------------------------|--------------------------|-------------------------|


  E  E  E  E  E  E  Q       Q.     E  Q    Q       E  Q.     Q    Q     
-------------------------|----------------------|----------------------|
-------------------------|--7------6--L----7----|--L--6------7----8----|
--5--5--5--5--5----------|----------------------|----------------------|
-------------------------|----------------------|----------------------|


  Q    H        E  E     E  E  E  E  E  E  E  E     E  E  E  E  E  E  E  E   
----------------------|--------------------------|--------------------------|
----------------------|--------------------------|--------------------------|
-------7--------7--7--|--7--7--7--7--7--7--7--7--|--7--7--7--7--7--7--7--7--|
--0-------------------|--------------------------|--------------------------|


  E    E  Q     E    E  Q        E  E  E  E  E  E  E  E   
------------------------------|--------------------------|
----------9\------------7\----|--------------------------|
--7h--10--------7h--10--------|--0--0--0--0--0--0--0--0--|
------------------------------|--------------------------|


  E  E  E  E  E  E  E  E     E  E  E  E  E  E  E  E     Q.     E  Q    Q     
--------------------------|--------------------------|----------------------|
--------------------------|--------------------------|----------------------|
--0--0--0--0--0--0--0--0--|--0--0--0--0--0--0--0--0--|--3------5--L----3----|
--------------------------|--------------------------|----------------------|


  E  E  E  E  E  E  E  E     E  E  E  E  E  E  E  E   
--------------------------|--------------------------|
--------------------------|--------------------------|
--0--0--0--0--0--0--0--0--|--0--0--0--0--0--0--0--0--|
--------------------------|--------------------------|


  E  E  E  E  E  E  E  E     Q.     E  Q    Q       E  E  E  E  E  E  E  E   
--------------------------|----------------------|--------------------------|
--------------------------|----------------------|--------------------------|
--0--0--0--0--0--0--0--0--|--3------5--L----3----|--0--0--0--0--0--0--0--0--|
--------------------------|----------------------|--------------------------|


  E  E  E  E  E  E  E  E     E  E  E  E  E  E  E  E     Q.     E  Q    Q     
--------------------------|--------------------------|----------------------|
--------------------------|--------------------------|----------------------|
--0--0--0--0--0--0--0--0--|--0--0--0--0--0--0--0--0--|--3------5--L----3----|
--------------------------|--------------------------|----------------------|


  E  E  E  E  E  E  E  E     E  E  E  E  E  E  Q     
--------------------------|-------------------------|
--------------------------|-------------------------|
--0--0--0--0--0--0--0--0--|--0--0--0--0--0--0--0----|
--------------------------|-------------------------|


   E  E  E  E  E  E  E  E     E  E  E  E  E  E  Q      
---------------------------|--------------------------|
--/7--7--7--7--7--7--7--7--|--7--7--7--7--7--7--7\----|
---------------------------|--------------------------|
---------------------------|--------------------------|


    E  E  E  E  E  E  E  E     E  E  E  E  E  E  E  E   
|---------------------------|--------------------------|
|*--------------------------|--------------------------|
|*--------------------------|--------------------------|
|---1--1--1--1--1--1--1--1--|--1--1--1--1--1--1--1--1--|


  E  E  E  E  E  E  E  E     E  E  E  E  E  E  E  E     Q.     E  Q    Q     
--------------------------|--------------------------|----------------------|
--------------------------|--------------------------|--5------5--L----5----|
--------------------------|--------------------------|----------------------|
--1--1--1--1--1--1--1--1--|--1--1--1--1--1--1--1--1--|----------------------|


  E  Q.     E  E  E  E       E  E  E  E  E  E  E  E   
-------------------------||--------------------------|
--L--5------7-----5-----*||--------------------------|
------------------------*||--------------------------|
-------------------------||--1--1--1--1--1--1--1--1--|


    E  E  E  E  E  E  E  E     E  E  E  E  E  E  E  E   
|---------------------------|--------------------------|
|*--------------------------|--------------------------|
|*--0--0--0--0--0--0--0--0--|--0--0--0--0--0--0--0--0--|
|---------------------------|--------------------------|


  E  E  E  E  E  E  E  E     E  E  E  E  E  E  E  E     
--------------------------|---------------------------||
--------------------------|--------------------------*||
--5--5--5--5--5--5--5--5--|--5--5--5--5--7--7--5--5--*||
--------------------------|---------------------------||


  E  E  E  E  E  E  E  E     E  E  E  E  E  E  E  E   
--------------------------|--------------------------|
--------------------------|--------------------------|
--5--5--5--5--7--7--5--5--|--3--3--3--3--3--3--3--3--|
--------------------------|--------------------------|


  E  E  E  E  E  E  E  E     E  E  E  E  E  E  E  E   
--------------------------|--------------------------|
--------------------------|--3--3--3--3--3--3--3--3--|
--3--3--3--3--5--5--3--3--|--------------------------|
--------------------------|--------------------------|


  E  E  E  E  E  E  E  E     E  E  E  E  E  E  E  E   
--------------------------|--------------------------|
--3--3--3--3--5--5--3--3--|--------------------------|
--------------------------|--3--3--3--3--3--3--3--3--|
--------------------------|--------------------------|


  E  E  E  E  E  E  E  E     E  E  E  E  E  E  E  E   
--------------------------|--------------------------|
--------------------------|--3--3--3--3--3--3--3--3--|
--3--3--3--3--5--5--3--3--|--------------------------|
--------------------------|--------------------------|


  E  E  E  E  E  E  E  E     E  E  E  E  E  E  E  E   
--------------------------|--------------------------|
--3--3--3--3--5--5--3--3--|--------------------------|
--------------------------|--------------------------|
--------------------------|--0--0--0--0--0--0--0--0--|


  E  E  E  E  E  E  E  E     E  E  E  E  E  E  E  E     E  E  E  E  E  E  Q     
--------------------------|--------------------------|-------------------------|
--------------------------|--------------------------|-------------------------|
--------------------------|--0--0--0--0--0--0--0--0--|--0--0--0--0--0--0--0----|
--0--0--0--0--0--0--0--0--|--------------------------|-------------------------|


  E  E  E  E  E  E  E  E     E  E  E  E  H           W                 
--------------------------|-----------------------|-------------------|
--------------------------|--------------5--------|--L----------------|
--------------2--3--2--3--|--5--5--4--5-----------|-------------------|
--3--2--3--5--------------|-----------------------|-------------------|


  H         H           E  E  E  E  E  E  E  E     E  E  E  E  E  E  E  E   
---------------------|--------------------------|--------------------------|
--L\-----------------|--------------------------|--------------------------|
---------------------|--2--2--2--2--2--2--2--2--|--2--2--2--2--0--0--1--1--|
---------------------|--------------------------|--------------------------|


  E  E  E  E  E  E  E  E     E  E  E  E  E  E  E  E   
--------------------------|--------------------------|
--------------------------|--------------------------|
--2--2--2--2--2--2--2--2--|--2--2--2--2--0--0--1--1--|
--------------------------|--------------------------|


  E  E  E  E  E  E  E  E     E  E  E  E  E  E  E  E   
--------------------------|--------------------------|
--------------------------|--------------------------|
--2--2--2--2--2--2--2--2--|--2--2--2--2--0--0--1--1--|
--------------------------|--------------------------|


  E  E  E  E  E  E  E  E     E  E  E  E  E  E  E  E   
--------------------------|--------------------------|
--------------------------|--------------------------|
--2--2--2--2--2--2--2--2--|--2--2--2--2--0--0--1--1--|
--------------------------|--------------------------|


  E  E  E  E  E  E  E  E     E  E  E  E  E  E  E  E   
--------------------------|--------------------------|
--------------------------|--------------------------|
--2--2--2--2--2--2--2--2--|--2--2--2--2--0--0--1--1--|
--------------------------|--------------------------|


  E  E  E  E  E  E  E  E     E  E  E  E  E  E  E  E   
--------------------------|--------------------------|
--------------------------|--------------------------|
--2--2--2--2--2--2--2--2--|--2--2--2--2--0--0--1--1--|
--------------------------|--------------------------|


  E  E  E  E  E  E  E  E     E  E  E  E  E  E  E  E   
--------------------------|--------------------------|
--------------------------|--------------------------|
--2--2--2--2--2--2--2--2--|--2--2--2--2--0--0--1--1--|
--------------------------|--------------------------|


  E  E  E  E  E  E  E  E     E   E  E  E  E  E  Q      
--------------------------|--2h--4--4--4-----4--4\----|
--------------------------|---------------------------|
--2--2--2--2--2--2--2--2--|---------------------------|
--------------------------|---------------------------|


  E  E  E  E  E  E  E  E     E  E  E  E  E  E  E  E   
--------------------------|--------------------------|
--------------------------|--------------------------|
--------------------------|--------------------------|
--3--3--3--3--3--3--3--3--|--3--3--3--3--3--3--3--3--|


  E  E  E  E  E  E  E  E     E  E  E  E  E  E  E  E   
--------------------------|--------------------------|
--------------------------|--------------------------|
--0--0--0--0--0--0--0--0--|--0--0--0--0--0--0--0--0--|
--------------------------|--------------------------|


  E  E  E  E  E  E  E  E     E  E  E  E  E  E  E  E   
--------------------------|--------------------------|
--------------------------|--------------------------|
--3--3--3--3--3--3--3--3--|--3--3--3--3--3--3--3--3--|
--------------------------|--------------------------|


  E  E  E  E  E  E  E  E     E  E  E  E  E  E  E  E     Q    Q    Q    Q     
--------------------------|--------------------------|----------------------|
--------------------------|--------------------------|--5----4----2---------|
--5--5--5--5--5--5--5--5--|--5--5--5--5--5--5--5--5--|-----------------5----|
--------------------------|--------------------------|----------------------|


  Q    Q    Q    Q       Q    Q    Q    Q       Q    Q    Q    Q     
----------------------|----------------------|----------------------|
--4----2--------------|--2-------------------|--5----4----2----4----|
------------5----3----|-------5----3----2----|----------------------|
----------------------|----------------------|----------------------|


  Q    Q    E  Q.        Q.     E  Q    Q       Q    Q    E  Q.      
----------------------|----------------------|----------------------|
----------------------|----------------------|----------------------|
--5----5----L--5------|--5------5--L----5----|--L----5----L--5------|
----------------------|----------------------|----------------------|


  Q    E  E  E  E  E  E       E  E  E  E  E  E  E  E   
-------------------------||---------------------------|
-------------------------||*--------------------------|
--5----5--5--5--5--5--5--||*--7--7--7--7--7--7--7--7--|
-------------------------||---------------------------|


  E  E  E  E  E  E  E  E     E  E  E  E  E  E  E  E     E  E  E  E  Q    Q     
--------------------------|--------------------------|------------------------|
--------------------------|--------------------------|------------------------|
--5--5--5--5--5--5--5--5--|--3--3--3--3--3--3--3--3--|--3--3--3--3--3----5----|
--------------------------|--------------------------|------------------------|


  E  E  E  E  E  E  E  E     E  E  E  E  E  E  E  E   
--------------------------|--------------------------|
--------------------------|--------------------------|
--7--7--7--7--7--7--7--7--|--5--5--5--5--5--5--5--5--|
--------------------------|--------------------------|


  E  E  E  E  E  E  E  E     E  E  E  E  Q    Q       E  E  Q    E  E  Q     
--------------------------|------------------------|------------------------|
--------------------------|------------------------|------------------------|
--3--3--3--3--3--3--3--3--|--3--3--3--3--3----5----|--------7----------7----|
--------------------------|------------------------|--0--0-------0--0-------|


  E  E  Q    E  E  Q       E  E  Q    E  E  Q       E  E  Q    E  E  Q     
------------------------|------------------------|------------------------|
------------------------|------------------------|------------------------|
--------7----------7----|--------7----------7----|--------7----------7----|
--0--0-------0--0-------|--0--0-------0--0-------|--0--0-------0--0-------|


  H        E  E  E  E     E  E  E  E  E  E  E  E     H        E  E  E  E   
-----------------------|--------------------------|-----------------------|
-----------5--7-----5--|--4-----5--7-----5--4-----|-----------4--4-----5--|
--5--------------------|--------------------------|--5--------------------|
-----------------------|--------------------------|-----------------------|


  E  E  E  E  E  E  Q          E  E  E  E  E  E  Q      
---------------------------||--------------------------|
--7--7--7--7--7--7--7\----*||--7--7--7--7--7--7--7\----|
--------------------------*||--------------------------|
---------------------------||--------------------------|


  E  E  E  E  E  E  E  E     E  E  E  E  E  E  E  E   
--------------------------|--------------------------|
--------------------------|--------------------------|
--------------------------|--------------------------|
--3--3--3--3--3--3--3--3--|--3--3--3--3--3--3--3--3--|


  E  E  E  E  E  E  E  E     Q.     E  Q    Q       E  E  E  E  E  E  E  E   
--------------------------|----------------------|--------------------------|
--------------------------|----------------------|--------------------------|
--------------------------|---------0--L----2----|--5--5--5--5--5--5--5--5--|
--3--3--3--3--3--3--3--3--|--3-------------------|--------------------------|


  E  E  E  E  E  E  E  E     E  E  E  E  E  E  E  E     E  E  E  E  E  E  Q     
--------------------------|--------------------------|-------------------------|
--------------------------|--------------------------|-------------------------|
--5--5--5--5--5--5--5--5--|--5--5--5--5--5--5--5--5--|--5--5--5--5--5--5--5----|
--------------------------|--------------------------|-------------------------|


  E  E  E  E  E  E  E  E     E  E  E  E  E  E  E  E   
--------------------------|--------------------------|
--------------------------|--------------------------|
--------------------------|--------------------------|
--5--5--5--5--5--5--5--5--|--3--3--3--3--3--3--3--3--|


  E  E  E  E  E  E  E  E     E  E  E  E  E  E  E  E   
--------------------------|--------------------------|
--------------------------|--------------------------|
--5--5--5--5--5--5--5--5--|--------------------------|
--------------------------|--5--5--5--5--5--5--5--5--|


  E  E  E  E  E  E  E  E     E  E  E  E  E  E  E  E   
--------------------------|--------------------------|
--------------------------|--------------------------|
--------------------------|--------------------------|
--5--5--5--5--5--5--5--5--|--3--3--3--3--3--3--3--3--|


  E  E  E  E  E  E  E  E     E  E  E  E  E  E  Q       E  E  E  E  E  E  Q     
--------------------------|-------------------------|-------------------------|
--------------------------|-------------------------|-------------------------|
--5--5--5--5--5--5--5--5--|-------------------------|-------------------------|
--------------------------|--5--5--5--5--5--3--0----|--5--5--5--5--5--5--5----|


  W                   W                   H        Q    E  S S  
-------------------|-------------------|-----------------------|
-------------------|-------------------|-------------------7-7-|
-------------------|-------------------|--5--------L----L------|
--5----------------|--3----------------|-----------------------|


       TP                                                                     
  Q    H        Q       E  E  E  E  E  E  E  E      E   E  E  E  E  E  Q      
--7----7--------L----|--------------------------|----------------------------|
---------------------|--------------------------|----------------------------|
---------------------|--------7--7-----9--------|--10--10--9--9--7--7--9\----|
---------------------|--0--0--------0-----0--0--|----------------------------|


  Q    Q    E  Q.        H         H          
----------------------|---------------------||
----------------------|---------------------||
-------7----L--5------|--7\-----------------||
----------------------|---------------------||




Duration Legend
---------------
W - whole
H - half
Q - quarter
E - 8th
S - 16th
T - 32nd
X - 64th
. - note dotted
|-n-|  - n-tuplets


Tablature Legend
----------------
L - tied note
x - dead note
g - grace note
(n) - ghost note
> - accentuded note
NH - natural harmonic
AH - artificial harmonic
TH - tapped harmonic
SH - semi harmonic
PH - pitch harmonic
h - hammer on
p - pull off
b - bend
br - bendRelease
pb - preBend
pbr - preBendRelease
brb - bendReleaseBend
\n/ - tremolo bar dip
\n - tremolo bar dive
-/n - tremolo bar Release up
/n\ - tremolo bar inverted dip
/n - tremolo bar return
-\n - tremolo bar Release down
S - shift slide
s - legato slide
/ -  slide into from below or out of upwards
\ -  slide into from above or out of downwards
~ - vibrato
W - wide vibrato
tr - trill
TP - tremolo picking
T - tapping
S - slap
P - pop
< - fade in
^ - brush up
v - brush down
comments
We did not receive enough feedback on this tab! Please rate:
print report bad tab
1 2 3 4 5
I want to post or [tab]
guest
You may want to rate the tab now too:
select rating
Please do not post tabs as comments. Select "correction" instead!