Oops, an error
Loading. Please wait.

Man On A Mission Bass Tab

622 views 3 this week
no commentswrite comment
1 2 3 4 5
accurate
x 1
Autoscroll
+/-
esc
set tempo
stop
Difficulty
intermediate
WARNING: You are trying to view
                                    content from Ultimate-Guitar.com
                                    in an unauthorized application,
                                    which is prohibited.

                                    Please use an official Ultimate
                                    Guitar Tabs application for iPhone,
                                    iPad or Android to access legitimate
                                    chords, guitar, bass, and drum tabs
                                    from Ultimate-Guitar.com database.

                                    Type "ultimate guitar tabs" in Apple
                                    App Store's or Android Market's
                                    search to find the application.
Gamma Ray


Man on a mission


Transcribed by: Paschendale

Email: una_de_rabas@hotmail.com

Slow Intro

G-------12-12-12-12-12-12-12-12------10-10-10-10-10-10-10-10-----12-12-12-12-|
D----------------------------------------------------------------------------|
A---5-----------------------------3---------------------------5--------------|
E----------------------------------------------------------------------------|

G---12-12-12-12----------------------------|---|
D------------------------------------------|---|
A-----------------3-------1-0-1-3-1-0------|---|
E-------------------------------------1-0--|---|

Fast Intro

G-------------------12-12-12-12-12-12-10-------------------------------------|
D----------------------------------------12------------------------------3-2-|
A---5-5-5-5-5-5-5-5--------------------------3-3-3-3-3-3-3-3-3-3-3-3-3-3-----|
E----------------------------------------------------------------------------|


G-------------------12-12-12-12-12-12-12-12----------------------------------|
D----------------------------------------------------------------------------|
A---5-5-5-5-5-5-5-5--------------------------3-3-3-3-3-3-3-3-1-1-1-1-3-3-3-3-|
E----------------------------------------------------------------------------|

G-------------------------------------------------||---|
D-------------------------------------------------||---|
A---7h8-8-8-8-8-7h8-8-8-8-7h8-8-8-8-8-8-8-7-------||---|
E-------------------------------------------10-8--||---|

Vocals

G-----------------------------------------------------------------------------|
D-----------------------------------------------------------------------------|
A-------------------3-3-3-3-3------------------------------3-3-3-3-3--5-3-----|
E---5-5-5-5-5-5-5-5-----------3-3-3-3-3-3--5-5-5-5-5-5-5-5----------------3---|

G---------------------------------------------------------------||---|
D---------------------------------------------------------------||---|
A-----------------3-3-3-3-3-3-3---------------------------------||---|
E---5-5-5-5-5-5-5---------------1-1-1-1-3-3-3-3-3-3-3-3--5-3-5--||---|

Bridge

G----------------------------------------------------------------------------|
D---0-0-0-0-0-0-0-0-0-12-12-12-12-12-12-12-12--------------------------------|
A----------------------------------------------0-0-0-0-0-0-0-0-12-12-12-12---|
E----------------------------------------------------------------------------|


G-----------------------------------------------------------------------------|
D--------------0-0-0-0-0-0-0-0-0-12-12-12-12-12-12-12-12--------7-------------|
A-12-12-12-12--------------------------------------------(8)-10---10----------|
E--------------------------------------------------------------------8-8-8-88-|


G----------------------------------------------------------------------------|
D------------------------------------------------------5-7-5-----------------|
A----------------------------5-5-5-5-5-5-5-5-5-8-8-8-8-------8---------------|
E-8-8-8-8--6-6-6-6-6-6-6-6-6-----------------------------------8-8-8-8-8-8-8-|

G---------------------||---|
D---------------------||---|
A---------------------||---|
E--8-8-8-8-8-8----7---||---|

Chorus.

G-----------------------------------------------------------------------------|
D-----------------------------------------------------------------------------|
A----------------------0-0-0-0-0-0-0-0-0-0-0-5-5-5-5-5-5-5-5-5-3-3-3-3-3-5-33-|
E---1-1-1-1-1-1-1-1-1-1-------------------------------------------------------|

G-----------------------------------------------------------------------------|
D-----------------------------------------------------------------------------|
A------------------------0-0-0-0-0-0-0-0-0-5-5-5-5-5-5-5-5-3-3-3-3-3-3-3-3-33-|
E--5-3--1-1-1-1-1-1-1-1-1-----------------------------------------------------|

G------------2---------------------------------------------------------------|
D----3-3-3-3---5-3-5-----------2--------------------------------------2-2--3-|
A----------------------3-3-3-3---5-3-5--1-1-1-1-3-1-0-1-5-5-5-5-5-5-5--------|
E----------------------------------------------------------------------------|


G-------2------------|---|
D-3-3-3---5-3-5------|---|
A----------------3---|---|
E--------------------|---|


Riff 1.

G----------------------------------------------------------------------------|
D-----------------12-12-12-12-12-12-12-12-12---------------10-10-10-10-10-10-|
A---5-5-5-5-5-5-5----------------------------3-3-3-3-3-3-3-------------------|
E----------------------------------------------------------------------------|

G----------------------------------------------------------------------------|
D-10-10------------------12-12-12-12-12-12-12-12---------------8-7-8-10-8-7--|
A-------5-5-5-5-5-5-5-5---------------------------3-3-3-3-3-3--------------8-|
E----------------------------------------------------------------------------|

G-----|---|
D-----|---|
A-7---|---|
E-----|---|
 Repeat Vocals and Bridge, then:


Chorus II.

G-----------------------------------------------------------------------------|
D-----------------------------------------------------------------------------|
A-----------------------0-0-0-0-0-0-0-0-0-0-0-5-5-5-5-5-5-5-5-5-3-3-3-3-3-5-3-|
E---1-1-1-1-1-1-1-1-1-1-------------------------------------------------------|

G-----------------------------------------------------------------------------|
D-----------------------------------------------------------------------------|
A------------------------0-0-0-0-0-0-0-0-0-5-5-5-5-5-5-5-5-3-3-3-3-3-3-3-3-3--|
E--5-3--1-1-1-1-1-1-1-1-1-----------------------------------------------------|

G------------2---------------------------------------------------------------|
D----3-3-3-3---5-3-5-----------2--------------------------------------2-2--3-|
A----------------------3-3-3-3---5-3-5--1-1-1-1-3-1-0-1-5-5-5-5-5-5-5--------|
E----------------------------------------------------------------------------|


G-------2-----------|---------------|---|
D-3-3-3---5-3-5-----|---------------|---|
A----------------3--|---5-----5/9---|---|
E-------------------|---------------|---|

Vocals II (Take my hand...)

G--------------------------------------|--------------------------------------|
D----4-4-----7-----9-------------------|--------------------------------------|
A--------------7-----9-----5--5h7p5-4--|------------4-4-4-4---------4-4-4-4---|
E--------------------------------------|----2-2-2-2---------2-2-2-2---------2-|

G----------------------------------------------------------------------------|
D----------------------------------------------------------------------------|
A-----------------------------0-----2-----5-5-5h7p5-4-4-4-4-4-4----------4-4-|
E-2-2-2-2-2-2-2-5-5-5-5-5-5-5---0-----2--------------------------2-2-2-2-----|

G----------------------------------------------------------------------------|
D----------------------------------------------------------------------------|
A-4-4---------4-4-4-4----------------------------------0-----5-7-9---5-5h7p5-|
E-----2-2-2-2---------2-2-2-2-2-2-2-2-5-5-5-5-5-5-5-5----0-------------------|

G----------------------------------|---|
D----------------------------------|---|
A-4-4-4--5-5h7p5-4-4-4-4-4-4-4-4---|---|
E----------------------------------|---|

Solo


G--------------------------------------------------------------------||---|
D--------------------------------------------------------------------||---|
A----------------------------4-2---2-------------------------2-0---0-||---|
E---2-2-2-2-2-2-2-2--2-4-5-2-----5----0-0-0-0-0-0-0--0-2-4-0-----4---||---|

G---------------------------------------------------------------------||---|
D---------------------------------------------------------------------||---|
A-----------------------4----7-5-4-5--------7-------7-------7-7-7-7-7-||---|
E----5-5-5-5-5-5-5--5-7---5-----------0-0-0---0-0-0---0-0-0-----------||---|

G----------------------------------------------------------------------------|
D-------------------4-4-4-4-4-2------------------------4-4-4-4-4-2-4-6-7-7-7-|
A---2-2-2-2-4-5-4-2-------------5-4--2-2-2-2-2-4-5-4-2-----------------------|
E----------------------------------------------------------------------------|

G---------------------------------------------------|------------------------|
D-7-7-7-7-------------------------------------------|--4-4-4-4-4-4-4---------|
A---------7-7-7-7-7-7-7-5-5-5-5-5-5-5-4-4-4-4-4-4-4-|----------------4-4-4-4-|
E---------------------------------------------------|------------------------|


G----------------------------------------------------------------------------|
D-------4-4-4-4-4-4-4----------------7-7-7-7-7-7-7-7-------------------------|
A-4-4-4---------------4-4-4-4-4-4-4------------------7-7-7-7-7-7-7-5-5-5-5-5-|
E----------------------------------------------------------------------------|

G---------------|-------------|------------|----------------|-------|---|
D---------------|-------------|------------|----------------|-------|---|
A-5-4-4-4-4-4-4-|-------------|------------|----------------|-------|---|
E---------------|--2-2-2-2-2--|--2-2-2-2-2-|--0-0-0-0-0-0-2-|--2--4-|---|


Vocals III ( Give us a chance to live....)
G-----------------------------------------------------------------------------|
D-----------------------------------------------------------------------------|
A-----------------------------------------------------------------------------|
E---6-6-6-6-6-6-6-6-6-6-6-6-6-6-4-6-6-6-6-6-6-6-6-6-6-6-6-6-6-6-4-4-4-4-4-4-4-|

G--------------------------------------------------------|--------------------|
D--------------------------------------------------------|--------------------|
A--------------------------------------------------------|--------------------|
E-4-4-4-4-4-4-4-4-2-2-2-2-2-2-1-1-1-1-1-1-6-6-6-6--6-4-6-|-6-6-6-6-6-6-6-6-66-|

G----------------------------------------------------------------------------|
D----------------------------------------------------------------------------|
A----------------------------------------------------------------------------|
E--4-6-6-6-6-6-6-6-6-6-6-6-6-4-4-4-4-4-4-4-4-4-4-4-2-2-2-2-1-1-1-1-6-6-6-6-6-|


	 Before you kill us all...

G----------------------------------------------------------------------------|
D----------------------------------------------------------------------------|
A-------4-3--------------------------------------4-3---3-------------------3-|
E-4-6-------6-4--6-4-6--6-6-6-6-4-6-6-6-6-6-4-6------6---4-4-4-4-4-4-4-4-4---|


G-----------5-5-5-5-5-5-5--|---|
D--------------------------|---|
A-3-3-3-3-3----------------|---|
E--------------------------|---|

Repeat Chorus and then:

G----------------------------------------------------------------------------|
D-----------------12-12-12-12-12-12-12-12-12---------------10-10-10-10-10-10-|
A---5-5-5-5-5-5-5----------------------------3-3-3-3-3-3-3-------------------|
E----------------------------------------------------------------------------|


G-----------------------------------------------------------------------------|
D-10-10------------------12-12-12-12-12-12-12-12---------------8-7-8-10-8-7---|
A-------5-5-5-5-5-5-5-5---------------------------3-3-3-3-3-3---------------8-|
E-----------------------------------------------------------------------------|

G-------------|----|
D-9---7---5---|----|
A-7---5---3---|----|
E-------------|----|
comments
We did not receive enough feedback on this tab! Please rate:
1 2 3 4 5
I want to post or [tab]
guest
You may want to rate the tab now too:
select rating
Please do not post tabs as comments. Select "correction" instead!