Oops, an error
Loading. Please wait.

The Silence Bass Tab

192 views 1 this week
no commentswrite comment
1 2 3 4 5
please rate
Autoscroll
+/-
esc
set tempo
stop
Difficulty
intermediate
WARNING: You are trying to view
                                    content from Ultimate-Guitar.com
                                    in an unauthorized application,
                                    which is prohibited.

                                    Please use an official Ultimate
                                    Guitar Tabs application for iPhone,
                                    iPad or Android to access legitimate
                                    chords, guitar, bass, and drum tabs
                                    from Ultimate-Guitar.com database.

                                    Type "ultimate guitar tabs" in Apple
                                    App Store's or Android Market's
                                    search to find the application.
 The Silence                                   


                                                                       Gamma Ray
Dirk 



     Q         Q    Q    Q    Q       Q      Q    H           
G||-------||-----------------------|------------------------||
D||-------||*----------------------|-----------------------*||
A||-------||*-----------------5----|--3----5g7----5--------*||
E||-------||---3----2----0---------|------------------------||


            |--3--|                                              
  Q    Q    E  E  E  Q       H           H        E  E  S  E  S  
--------------------------|-----------|-------------------------|
------------5--------5----|--L--------|--L--------L--5--5h-7--5-|
--3----5-------2--5-------|-----------|-------------------------|
--------------------------|-----------|-------------------------|


  Q.     E   H           H        Q     Q        H.           S  E   S  
----------------------|-----------------------|------------------------|
--4------L\--0--------|-----------------------|------------------------|
----------------------|--7--------L\----5\----|--3------------3h-5p--3-|
----------------------|-----------------------|------------------------|


  H        E  S S E.  S     H.           Q        H.           S S E   
------------------------|----------------------|----------------------|
------------------------|----------------------|----------------------|
------------------0---2-|--/5------------5\----|--3------------3-5-3--|
--3--------L--2-3-------|----------------------|----------------------|


  Q    S S E    H           H        E  E  S  E  S    Q.     E   H         
-------------------------|-------------------------|----------------------|
-------------------------|--5--------L--5--5h-7--5-|--4------L\--0--------|
---------0-2--2g5--------|-------------------------|----------------------|
--3----3-----------------|-------------------------|----------------------|


  H        Q     Q        H.           S  E   S    H        E  S S E.  S  
-----------------------|------------------------|------------------------|
-----------------------|------------------------|------------------------|
--7--------L\----5\----|--3------------3h-5p--3-|------------------0---2-|
-----------------------|------------------------|--3--------L--2-3-------|


   H.           Q        H.           S S E     Q    S S E    H         
----------------------|----------------------|-------------------------|
----------------------|----------------------|-------------------------|
--/5------------5\----|--3------------3-5-3--|---------0-2--2g5--------|
----------------------|----------------------|--3----3-----------------|


  Q    E.  S E  E  E  S S    Q    E.  S E  E  E  S S    Q    E.  S Q    E.  S  
--------------------------|--------------------------|------------------------|
--------------------------|--------------------------|------------------7-----|
--------------------------|--5----5---0-5--5--L--5-5-|--7----7-----5--------3-|
--5----5---0-5--5--L--5-5-|--------------------------|-----------7------------|


  Q    E.  S E  E  S S S S    Q    E.  S E  E  S S S S  
---------------------------|---------------------------|
-------------------2-2-----|---------------------------|
--3----3-----3--3------3-3-|---------------------0-2-2-|
-----------3---------------|--3----3---0-3--3--3-------|


  Q    S E  S Q    E.  S    Q    E  E  Q    E  E     Q    S S E  H         
-------------------------|------------------------|-----------------------|
--2----0-0---------------|-------2----------7-----|-----------------------|
------------3-3----L-----|--3-------3--5-------5--|---------0-2--5--------|
-----------------------3-|------------------------|--3----3---------------|


  Q.     Q.     Q.     E  S S E     Q.     Q.     H.            
---------------------------------|-----------------------------|
---------------------------------|-----------------------------|
---------------------------------|--3------2------5------------|
--3------2------0------L--0-2-3--|-----------------------------|


  Q.     Q    E  Q.     E  E  E     Q.     Q    E  Q    E  E  E  E   
---------------------------------|----------------------------------|
---------5-----------------------|---------0-------0----0--4--4--0--|
--3-----------3------------0--2--|--------------0-------------------|
-----------------3------L--------|--2-------------------------------|


  Q.     Q    E  Q.     E  E  E     Q.     Q    E  E  S E.  E  E  E   
---------------------------------|-----------------------------------|
------------------------4--4-----|---------9------------9---L--------|
-----------------5------------5--|--7-----------7-----9--------0--2--|
--3------3----3------------------|-----------------7-----------------|


  E  E  E  Q    E  Q.     Q    E     Q    E  Q    E  Q    E  E  S S S S  
--------5-------------------------|-------------------------------------|
-----5-----5--------------7-------|-------------------------------------|
--3-------------3--5-----------5--|-------------------------------------|
----------------------------------|--3----3--3----3--3----3--3--3-3-3-3-|


  Q    E  Q    E  Q    E  S S S S S S    Q    E  E  E  E  Q    E  Q    E   
--------------------------9-----9-----|-----------------------------------|
----------------------------9-9---9-9-|--0----0--0--0---------------------|
--2----2--2----2--7----7--------------|----------------2------------------|
--------------------------------------|-------------------3----3--3----3--|


  Q    E  Q    E  E  E  E  E  E  E     W                 
------------------------------------|-------------------|
------------------------------------|-------------------|
------------------2--2--2--2--4--5--|--0----------------|
--2----2--2----2--------------------|-------------------|


  E  E  E  E  S S E  E  E     S S E  E  E  S S S S S S S S  
---------------------------|-------------------------------|
---------------------------|---------------0-0-0-0-0-0-0-0-|
---------------------------|-------------------------------|
--0-----0-----0-0----0-----|--0-0----0---------------------|


  E  E  E  E  S S E  E  E     S S E  E  E  S S S S S S S S  
---------------------------|-------------------------------|
---------------------------|---------------0-0-0-0-0-0-0-0-|
---------------------------|-------------------------------|
--0-----0-----0-0----0-----|--0-0----0---------------------|


    W                   W                   H.           Q     
|--------------------|-------------------|--------------------|
|*--2----------------|--0----------------|---------------0----|
|*-------------------|-------------------|--3-----------------|
|--------------------|-------------------|--------------------|


  S S S S E  E  S S S S E  E     S S S S E  E  S S S S S S S S    
------------------------------|---------------------------------||
----------2-------------2-----|----------2-----0-0-0-0-0-0-0-0-*||
------------------------------|--------------------------------*||
--0-0-0-0-------0-0-0-0-------|--0-0-0-0------------------------||


  S S S S E  E  S S S S S S S S    S S S S E  E  S S S S E  E   
--------------------------------|------------------------------|
----------2-----0-0-0-0-0-0-0-0-|----------2-------------2-----|
--------------------------------|------------------------------|
--0-0-0-0-----------------------|--0-0-0-0-------0-0-0-0-------|


  S S S S E  E  S S S S S S S S    W                   H.            Q      
--------------------------------|-------------------|----------------------|
----------2-----0-0-0-0-0-0-0-0-|--2----------------|----------------------|
--------------------------------|-------------------|--2/------------------|
--0-0-0-0-----------------------|-------------------|----------------2s----|


   H.            Q        H.            Q         H.           Q      
----------------------|-----------------------|----------------------|
----------------------|-----------------------|----------------------|
----------------------|-----------------------|----------------------|
--14------------14----|--14------------14\----|--/7------------7s----|


   H.            Q          H.            Q        H         Q     Q      
-----------------------|-----------------------|-------------------------|
-----------------------|-----------------------|------------14-----------|
-----------------------|-----------------------|------------------14\----|
--19------------19\----|--/12------------12----|--12---------------------|


   H.           Q         H.            Q          H.            Q      
----------------------|-----------------------|------------------------|
----------------------|-----------------------|------------------------|
----------------------|-----------------------|-----------------14\----|
--/7------------7/----|--14------------14\----|--/12-------------------|


   W                     E  E  E  E  E  E  E  E     E  E  E  E  E  E  E  E   
--------------------||---------------------------|--------------------------|
--------------------||*--------------------------|--------------------------|
--------------------||*--------------------------|--------------------------|
--/7----------------||---0-----0-----0-----0-----|--0-----0-----0--0-----0--|


  E  E  E  E  E  E  E  E     E  E  E  E  E  E  E  E   
--------------------------|--------------------------|
--------------------------|--------------------------|
--------------------------|--------------------------|
--0-----0-----0-----0-----|--0-----0-----0--0-----0--|


  E  E  E  E  E  E  E  E     E  E  E  E  E  E  E  E   
--------------------------|--------------------------|
--------------------------|--------------------------|
--3-----3-----3-----3-----|--3-----3-----3--3--2--2--|
--------------------------|--------------------------|


  E  E  E  E  E  E  E  E     E  E  E  E  E  E  E  E     
--------------------------|---------------------------||
--------------------------|--------------------------*||
--------------------------|--------------------------*||
--0-----0-----0-----0-----|--0-----0-----0--0-----0---||


  E  E  E  E  E  E  E  E     E  E  E  E  E  E  E  E   
--------------------------|--------------------------|
--------------------------|--------------------------|
--3--3--3--3--3--3--3--3--|--3--3--3--3--3--3--2--0--|
--------------------------|--------------------------|


  Q    E.  S S S E  E  S S    E  E  E.  S S S E  E  S S  
---------------------------|----------------------------|
---------------------------|---------------------4------|
-------7------------7--7-6-|--5--5--5---0-5---5-----5-4-|
--0--------0-0---0---------|----------------------------|


  Q    E.  S S S E  E  S S    E  E  E.  S S S S S S S E   
---------------------------|--------4--------------------|
-------5------------5------|-----------------------------|
--3--------3-3---3-----3-0-|--2--2------0-2-0-0----------|
---------------------------|--------------------3-3-2-2--|


  E  E  E.  S E  E  E  E     E  S S E.  S E  E  E  S S  
--------------------------|----------------------------|
--------------------------|---------7-----------7------|
--------7-----------7--0--|--5--5-5-----5-5--5-----5-0-|
--0--0------0-0--0--------|----------------------------|


  E  E  E.  S E  E  E  S S    E  E  E.  S E  S S E  S S  
---------------------------|----------------------------|
--------5-----------5------|----------------------------|
--3--3------0-3--3-----3-3-|--2--2--2---0-2--0-0--------|
---------------------------|---------------------3--2-2-|


  E  E  E.  S E  E  E  E     E  S S E.  S E  E  E  S S  
--------------------------|----------------------------|
--------------------------|---------7-----------7------|
--------7-----------7--0--|--5--5-5-----5-5--5-----5-0-|
--0--0------0-0--0--------|----------------------------|


  E  E  E.  S E  E  E  S S    E  E  E.  S E  S S E  S S  
---------------------------|----------------------------|
--------5-----------5------|----------------------------|
--3--3------0-3--3-----3-3-|--2--2--2---0-2--0-0--------|
---------------------------|---------------------3--2-2-|


  E  E  E.  S E  E  E  E     E  S S E.  S E  E  E  S S  
--------------------------|----------------------------|
--------------------------|---------7-----------7------|
--------7-----------7--0--|--5--5-5-----5-5--5-----5-0-|
--0--0------0-0--0--------|----------------------------|


  E  E  E.  S E  E  E  S S    E  E  E.  S E  S S E  S S    H        Q     
---------------------------|----------------------------|----------------|
--------5-----------5------|----------------------------|----------------|
--3--3------0-3--3-----3-3-|--2--2--2---0-2--0-0--------|--3-------------|
---------------------------|---------------------3--2-2-|-----------5----|


  H        Q       H        Q       H        E  E  E  E     Q    Q    H         
----------------|----------------|-----------2--------2--|---------------------|
----------------|----------------|-----------------4-----|---------------------|
--5--------2----|--3-------------|--5-----------5--------|------------5--------|
----------------|-----------5----|-----------------------|--3----3-------------|


  Q    Q    H           Q    Q    H           Q    Q    Q    Q     
---------------------|---------------------|-----------------2----|
---------------------|---------------------|------------4---------|
------------5--------|------------5--------|-------5--------------|
--3----3-------------|--3----3-------------|----------------------|


  W                   W                   Q    E.  S S S E  E  E   
-------------------|-------------------|--------------------------|
-------------------|-------------------|--5----5---5--------------|
-------------------|-------------------|-------------5---5--L--5--|
--3----------------|--L----------------|--------------------------|


  Q    E.  S S S E  Q       Q    E.  S S S E  E  E     Q    E.  S E  Q    E   
-------------------------|--------------------------|------------------------|
-------5-----------------|--------------------------|-------7--------7-------|
--7--------7-------------|--3-----------------------|--5--------5-5----------|
-------------7---7--L----|-------3---3-3---3--5--7--|---------------------5--|


  Q    E.  S S S E  E  E     Q    E.  S E  Q    E     Q    E.  S S S E  E  E   
--------------------------|------------------------|--------------------------|
--5----5---5--------------|-------5----------------|-------5------------------|
-------------5---5--L--5--|--7--------7------------|--3--------3-5---5--L-----|
--------------------------|-------------7--7----7--|-----------------------5--|


  Q    E.  S S S E  E  E     Q    E.  S S S E  E  E   
--------------------------|--------------------------|
--------------------2-----|--------------------------|
--3----3-----3---3-----3--|--------------------0--2--|
-----------3--------------|--3----3---0-3---3--------|


  Q    E.  S S S E  E  E     Q    E.  S E  E  E  E   
--------------------------|-------------------------|
--------------------2-----|-------------------------|
--3----3-----3---3-----3--|-------------2-----0--2--|
-----------3--------------|--3----3---0----3--------|


  E  E  E.  S S S E  E  E     Q    E.  S E  E  E  E   
---------------------------|-------------------------|
---------------------2-----|-------------------------|
--3--3--3-----3---3-----3--|-------------2-----0--2--|
------------3--------------|--3----3---0----3--------|


  E  E  E.  S S S E  E  E     Q    Q    Q    Q      
---------------------------|--0-------------------||
---------------------2--4--|-------0--------------||
--3--3--3-----3---3--------|------------2---------||
------------3--------------|-----------------3----||




Duration Legend
---------------
W - whole
H - half
Q - quarter
E - 8th
S - 16th
T - 32nd
X - 64th
. - note dotted
|-n-|  - n-tuplets


Tablature Legend
----------------
L - tied note
x - dead note
g - grace note
(n) - ghost note
> - accentuded note
NH - natural harmonic
AH - artificial harmonic
TH - tapped harmonic
SH - semi harmonic
PH - pitch harmonic
h - hammer on
p - pull off
b - bend
br - bendRelease
pb - preBend
pbr - preBendRelease
brb - bendReleaseBend
\n/ - tremolo bar dip
\n - tremolo bar dive
-/n - tremolo bar Release up
/n\ - tremolo bar inverted dip
/n - tremolo bar return
-\n - tremolo bar Release down
S - shift slide
s - legato slide
/ -  slide into from below or out of upwards
\ -  slide into from above or out of downwards
~ - vibrato
W - wide vibrato
tr - trill
TP - tremolo picking
T - tapping
S - slap
P - pop
< - fade in
^ - brush up
v - brush down
comments
We did not receive enough feedback on this tab! Please rate:
print report bad tab
1 2 3 4 5
I want to post or [tab]
guest
You may want to rate the tab now too:
select rating
Please do not post tabs as comments. Select "correction" instead!