Oops, an error
Loading. Please wait.

Valley Of The Kings Bass Tab

206 views 1 this week
no commentswrite comment
1 2 3 4 5
please rate
Autoscroll
+/-
esc
set tempo
stop
WARNING: You are trying to view
                                    content from Ultimate-Guitar.com
                                    in an unauthorized application,
                                    which is prohibited.

                                    Please use an official Ultimate
                                    Guitar Tabs application for iPhone,
                                    iPad or Android to access legitimate
                                    chords, guitar, bass, and drum tabs
                                    from Ultimate-Guitar.com database.

                                    Type "ultimate guitar tabs" in Apple
                                    App Store's or Android Market's
                                    search to find the application.
Valley Of The Kings                               


                                                                       Gamma Ray
Dirk



      H        Q    E  E     E  E  Q    Q    E  E     E  E  Q    Q    E  E   
F#||----------------------|------------------------|------------------------|
C#||----------------------|------------------------|------------------------|
G#||-------------------3--|--3--5---------------3--|--5------------------3--|
D#||----------------------|------------------------|------------------------|


  E  E  E  E  E  E  Q       S S S S S S S S S S S S S S S S  
-------------------------|----------------------------------|
-------------------------|----------------------------------|
--3--5--5--------3-------|--5-5-5-5-5-5-5-5-5-5-5-5-5-5-5-5-|
-------------------------|----------------------------------|


  S S S S S E  S S S S S S S S S    S S S S S S S S S S S S S S S S  
---------------------------------|----------------------------------|
------------8--------------------|----------------------------------|
---------------------------------|--5-5-5-5-5-5-5-5-5-5-5-5-5-5-5-5-|
--6-6-6-6-6----6-8-8-8-8-8-8-8-8-|----------------------------------|


  S S S S S S E  H             E  E  E  S S S S E  E  S S  
--------------------------||------------------------------|
--------8-L---------------||*--------7-------------7------|
--------------------------||*-----------------------------|
--6-6-6-----6-------------||---5--5-----x-5---5-5-----5-5-|


  E  E  E  S S S S E  E  S S    E  E  E  S S S S E  E  S S  
-----------------------------|-----------------------------|
--------3-------------5------|--------7-------------7------|
-----------------------------|-----------------------------|
--1--1-----1-1---3-5-----x-3-|--5--5-----x-5---5-5-----5-5-|


  E  E  E  S S S S E  E  E     S S S S S S S S S S S S S S S S  
----------------------------|----------------------------------|
--------3----------------5--|----------------------------------|
----------------------------|--3-3-3-3-3-3-3-3-3-3-3-3-3-3-3-3-|
--1--1-----1-1---3-5--3-----|----------------------------------|


  S S S S S S S S S S S S S S S S    S S S S S S S S S S S S S S S S  
----------------------------------|----------------------------------|
----------------------------------|----------------------------------|
--3-3-3-3-3-3-3-3-3-3-3-3-5-5-5-5-|--7-7-7-7-7-7-7-7-7-7-7-7-7-7-7-7-|
----------------------------------|----------------------------------|


  S S S  S S  S S S  S S S S E  E     S S S S S S S S S S S S S S S S  
-----------------------------------|----------------------------------|
-----------------------------------|----------------------------------|
--7-8-7----7-----------------------|----------------------------------|
--------10---10-8-7-10-8-7-5-8--7--|--5-5-5-5-5-5-5-5-3-3-3-3-0-0-3-3-|


  S S S S S S S S S S S S S S S S    S S S S S S S S S S S S S S S S  
----------------------------------|----------------------------------|
----------------------------------|----------------------------------|
----------------------------------|--------------7-7-----------------|
--5-5-5-5-5-5-5-5-5-5-5-5-5-5-7-7-|--8-8-8-8-8-8-----1-1-1-1-5-5-5-5-|


  S S S S S S S S S S S S S S S S    S S S S S S S S S S S S S S S S  
----------------------------------|----------------------------------|
----------------------------------|----------------------------------|
----------------------------------|----------------------------------|
--3-3-3-3-3-3-3-3-3-3-3-3-8-8-7-7-|--5-5-5-5-5-5-5-5-3-3-3-3-0-0-0-0-|


  S S S S S S S S S  S S  S S  S S S    S S S S S S  S S S S S S S S S S  
-------------------------------------|-----------------------------------|
-----------------------7-------------|-----------------------------------|
------------------7-10---10-7--------|-----------------7-----------------|
--5-5-5-5-5-5-7-8-------------10-8-7-|--8-8-8-8-8-8-10---1-1-1-1-1-1-5-4-|


  S S S S S S S S S S S S S S S S    S S S S S S S S S S S S S S S S  
----------------------------------|----------------------------------|
--------------------5-5-5-5-3-2---|----------------------------------|
--------------------------------5-|--5-5-5-5-5-5-5-5-5-5-5-5-5-5-5-5-|
--3-3-3-3-3-3-3-3-3---------------|----------------------------------|


  S S S S S S S S S S S S S S S S    S S S S S S S S S S S S S S S S  
----------------------------------|----------------------------------|
----------------------------------|----------------------------------|
--1-1-1-1-1-1-1-1-3-3-3-3-3-3-3-3-|--5-5-5-5-5-5-5-5-5-5-5-5-5-5-5-5-|
----------------------------------|----------------------------------|


  S S S S S S S S S S S S S S S S      S S S S S S S S S S S S S S S S  
-----------------------------------||----------------------------------|
----------------------------------*||----------------------------------|
--1-1-1-1-1-1-1-1-3-3-3-3-3-3-3-3-*||--3-3-3-3-3-3-3-3-3-3-3-3-3-3-3-3-|
-----------------------------------||----------------------------------|


  S S S S S S S S S S S S S S S S    S S S S S S S S S S S S S S S S  
----------------------------------|----------------------------------|
----------------------------------|----------------------------------|
----------------------------------|--5-5-5-5-5-5-5-5-5-5-5-5-5-5-5-5-|
--1-1-1-1-1-1-1-1-3-3-3-3-3-3-3-3-|----------------------------------|


  S S S S S S S S S S S S S S S S    S S S S S S S S S S S S S S S S  
----------------------------------|--------------------2-5-2---------|
----------------------------------|----------------3-5-------5-3-----|
--1-1-1-1-1-1-1-1-3-3-3-3-3-3-3-3-|--5-5-5-5-5-5-5---------------5-3-|
----------------------------------|----------------------------------|


  S S S S S S S S S S S S S S E     S S E  S S E  S S E  S S S S  
---------------------------------|-------------------------------|
---------------------------------|-------------------------------|
--1-1-1-1-1-1-1-1-3-3-3-3-3-3-3--|------7------7------7--7-5-5-5-|
---------------------------------|--0-0----0-0----0-0------------|


  S S E  S S E  S S  S S S S S S    S S E  S S E  S S E  S S S S  
---------------------------------|-------------------------------|
-----------------------9-8---7---|-------------------------------|
------7------7--7-9-10-----9---8-|------7------7------7--7-5-5-5-|
--0-0----0-0---------------------|--0-0----0-0----0-0------------|


  S S E  S S E  S S  S S S S S S    S S S S S S S S S  S  S  S  S  S  E   
---------------------------------|-----------------------10--------------|
-----------------------9-8---7---|--------------------12----12-10-12-10--|
------7------7--7-9-10-----9---8-|--5-5-5-5-5-5-5-5-5--------------------|
--0-0----0-0---------------------|---------------------------------------|


  S S S S S S S S S S S S S S S S    S S S S S S S S S S S S S S S S  
----------------------------------|----------------------------------|
----------------------------------|----------------------------------|
--1-1-1-1-1-1-1-1-3-3-3-3-3-3-3-3-|--5-5-5-5-5-5-5-5-5-5-5-5-5-5-5-5-|
----------------------------------|----------------------------------|


  S S S S E  E  Q    Q       S S S S S S S S S S S S S S S S  
--------------------------|----------------------------------|
--------------------------|----------------------------------|
--1-1-1-1-1--1--3---------|----------------------------------|
--------------------------|--5-5-5-5-5-5-5-5-5-5-5-5-5-5-5-5-|


  S S S S S S S  S S S S S S S S S    S S S S S S S S S S S S S S S S  
-----------------------------------|----------------------------------|
-----------------------------------|----------------------------------|
--3-3-3-3-3-3-3h-5-----------------|----------------------------------|
-------------------3-3-3-3-3-3-3-3-|--5-5-5-5-5-5-5-5-5-5-5-5-5-5-5-5-|


  S S S S S S S  S S S S S S S S S    S S S S S S S S S S S S S S S S  
-----------------------------------|----------------------------------|
-----------------------------------|----------------------------------|
--3-3-3-3-3-3-3h-5-----------------|----------------------------------|
-------------------3-3-3-3-3-3-3-3-|--7-7-7-7-7-7-7-7-7-7-7-7-7-7-7-7-|


  S S S S S S S S S S S S S S S S    S S S S S S S S S S S S S S S S  
----------------------------------|----------------------------------|
----------------------------------|----------------------------------|
----------------------------------|----------------------------------|
--3-3-3-3-3-3-3-3-5-5-5-5-5-5-5-5-|--7-7-7-7-7-7-7-7-7-7-7-7-7-7-7-7-|


  S S S S S S S S S S S S S S S S    S S S S S S S S S S S S S S S S  
----------------------------------|----------------------------------|
----------------------------------|----------------------------------|
----------------------------------|--7-7-7-7-7-7-7-7-7-7-7-7-7-5-5-5-|
--3-3-3-3-3-3-3-3-5-5-5-5-5-5-5-5-|----------------------------------|


  S S S S S S S S S S  S S S S S S    S S S S S S S S S S S S S S S S  
-----------------------------------|----------------------------------|
-------------------------9-8---7---|----------------------------------|
--7-7-7-7-7-7-7-7-7-9-10-----9---8-|--7-7-7-7-7-7-7-7-7-7-7-7-7-5-5-5-|
-----------------------------------|----------------------------------|


  S S S S S S S S S S  S S S S S S    Q.     S   S  H         
-----------------------------------|-------------------------|
-------------------------9-8---7---|-------------------------|
--7-7-7-7-7-7-7-7-7-9-10-----9---8-|---------6h-11-11--------|
-----------------------------------|--6----------------------|


  Q     E   S   S   S  S  E  Q       Q    E.  S Q.     E   
----------------------------------|-----------------------|
-----------10h-12h-12-10----------|-----------------------|
-------10----------------10-------|-----------6--------6--|
--8--------------------------8----|--4----L-----4---------|


  S S S S S S S S S S S S S S S S    E  E  S E  S S S E  E  S  S  
----------------------------------|----------------------5-------|
----------------------------------|------------------------------|
----------------------------------|--3--3----3--3----------------|
--3-3-3-3-3-3-3-3-3-3-3-3-3-3-3-3-|-----------------3-3-----4h-6-|


  E  E  S E  S S S S  S S  S S S    E  E  S E  S S S E  E  S S  
---------------------------------|----------------------5------|
--------6--------8---------------|-----------------------------|
------------------------6p-5-----|--3--3----3--3---3-3---------|
--4--4----4--6-L---6h-8------8-6-|-------------------------4-6-|


  E  E  S E  S S S E  Q       S S S S S S S S S S S S S S S S  
---------------------------|----------------------------------|
--------6-------------8----|----------------------------------|
---------------------------|--6-6-6-6-6-6-6-6-6-6-6-6-6-6-6-6-|
--4--4----4--6---6-6-------|----------------------------------|


  S S S S S S S S S S S S S S S S  
----------------------------------|
----------------------------------|
--6-6-6-6-6-6-6-6-6-6-6-6-8-8-8-8-|
----------------------------------|


   S  S  S  S  S  S  S  S  S  S  S  S  S  S  S  S  
--------------------------------------------------|
--------------------------------------------------|
--10-10-10-10-10-10-10-10-10-10-10-10-10-10-10-10-|
--------------------------------------------------|


   S  S  S  S  S  S  S  S  S  S  S S E  E     S S S S S S S S S S S S S S S S  
-------------------------------------------|----------------------------------|
-------------------------------------------|----------------------------------|
--10-11-10----10---------------------------|----------------------------------|
-----------13----13-11-10-13-11-10-8-8--7--|--5-5-5-5-5-5-5-5-3-3-3-3-0-0-3-3-|


  S S S S S S S S S S S S S S S S    S S S S S S S S S S S S S S S S  
----------------------------------|----------------------------------|
----------------------------------|----------------------------------|
----------------------------------|--------------7-7-----------------|
--5-5-5-5-5-5-5-5-5-5-5-5-5-5-7-7-|--8-8-8-8-8-8-----5-5-5-5-1-1-1-1-|


  S S S S S S S S S S S S S S S S    S S S S S S S S S S S S S S S S  
----------------------------------|----------------------------------|
----------------------------------|----------------------------------|
----------------------------------|----------------------------------|
--3-3-3-3-3-3-3-3-3-3-3-3-8-8-7-7-|--5-5-5-5-5-5-5-5-3-3-3-3-0-0-0-0-|


  S S S S S S S S S S S S S S S S    S S S S S S S S S S S S S S S S  
----------------------------------|----------------------------------|
----------------------------------|----------------------------------|
--3-3-3-3-3-3-3-3-3-3-3-3-3-3-3-3-|----------------------------------|
----------------------------------|--1-1-1-1-1-1-1-1-3-3-3-3-3-3-3-3-|


  S S S S S S S S S S S S S S S S    S S S S S S S S S S S S S S S S  
----------------------------------|----------------------------------|
----------------------------------|----------------------------------|
----------------------------------|----------------------------------|
--5-5-5-5-5-5-5-5-3-3-3-3-0-0-3-3-|--5-5-5-5-5-5-5-5-5-5-5-5-5-5-7-7-|


  S S S S S S S S S S S S S S S S    S S S S S S S S S S S S S S S S  
----------------------------------|----------------------------------|
----------------------------------|----------------------------------|
--------------7-7-----------------|----------------------------------|
--8-8-8-8-8-8-----5-5-5-5-1-1-1-1-|--3-3-3-3-3-3-3-3-3-3-3-3-8-8-7-7-|


  S S S S S S S S S S S S S S S S    S S S S S S S S S S S S S S S S  
----------------------------------|----------------------------------|
----------------------------------|--------------5-7-5---------------|
----------------------------------|--3-3-3-3-5-7-------7-5-----------|
--5-5-5-5-5-5-5-5-3-3-3-3-0-0-0-0-|------------------------8-0-0-0-0-|


  S S S S S S S S S S S S S S S S    S S S S S S S S S S S S S S S S  
----------------------------------|----------------------------------|
----------------------------------|----------------------------------|
----------------------------------|----------------------------------|
--1-1-1-1-1-1-1-1-3-3-3-3-3-3-3-3-|--5-5-5-5-5-5-5-5-5-5-5-5-5-5-5-5-|


  S S S S S S S S S S S S S S S S    S S S S S S S S S S S S S S S S  
----------------------------------|----------------------------------|
----------------------------------|--------------5-7-5---------------|
----------------------------------|------3-5-3-5-------7-5-3-3-2-0---|
--1-1-1-1-1-1-1-1-3-3-3-3-3-3-3-3-|--5-5---------------------------3-|


  S S S S Q    H           W                   H        H         
------------------------|-------------------|--------------------|
------------------------|-------------------|--------------------|
------------------------|--5----------------|--------------------|
--1-1-1-1-1----3--------|-------------------|--1--------3--------|


  S S S S S S S S H          
---------------------------||
---------------------------||
---------------------------||
--5-5-5-5---3-5------------||




Duration Legend
---------------
W - whole
H - half
Q - quarter
E - 8th
S - 16th
T - 32nd
X - 64th
. - note dotted
|-n-|  - n-tuplets


Tablature Legend
----------------
L - tied note
x - dead note
g - grace note
(n) - ghost note
> - accentuded note
NH - natural harmonic
AH - artificial harmonic
TH - tapped harmonic
SH - semi harmonic
PH - pitch harmonic
h - hammer on
p - pull off
b - bend
br - bendRelease
pb - preBend
pbr - preBendRelease
brb - bendReleaseBend
\n/ - tremolo bar dip
\n - tremolo bar dive
-/n - tremolo bar Release up
/n\ - tremolo bar inverted dip
/n - tremolo bar return
-\n - tremolo bar Release down
S - shift slide
s - legato slide
/ -  slide into from below or out of upwards
\ -  slide into from above or out of downwards
~ - vibrato
W - wide vibrato
tr - trill
TP - tremolo picking
T - tapping
S - slap
P - pop
< - fade in
^ - brush up
v - brush down
comments
We did not receive enough feedback on this tab! Please rate:
print report bad tab
1 2 3 4 5
I want to post or [tab]
guest
You may want to rate the tab now too:
select rating
Please do not post tabs as comments. Select "correction" instead!