Oops, an error
Loading. Please wait.

Your Turn Is Over Bass Tab

58 views 1 this week
no commentswrite comment
1 2 3 4 5
please rate
Autoscroll
+/-
esc
set tempo
stop
WARNING: You are trying to view
                                    content from Ultimate-Guitar.com
                                    in an unauthorized application,
                                    which is prohibited.

                                    Please use an official Ultimate
                                    Guitar Tabs application for iPhone,
                                    iPad or Android to access legitimate
                                    chords, guitar, bass, and drum tabs
                                    from Ultimate-Guitar.com database.

                                    Type "ultimate guitar tabs" in Apple
                                    App Store's or Android Market's
                                    search to find the application.
Your Turn Is Over


                                                                       Gamma Ray
Jan Rubach

                         W                   H        H
G||-------------------|-------------------|--------------------|
D||-------------------|-------------------|--------------------|
A||-------------------|--7----------------|--3--------1--------|
E||-------------------|-------------------|--------------------|


  W                   W                   W
-------------------|-------------------|-------------------|
-------------------|-------------------|-------------------|
-------------------|-------------------|--7----------------|
--0----------------|--L----------------|-------------------|


  H        Q    E  E     E  E  Q    H           W
----------------------|----------------------|-------------------|
----------------------|----------------------|-------------------|
--3--------1----------|----------------------|-------------------|
----------------0--0--|--0-------------------|-------------------|


  W                   H        H           E  E  Q    Q    E  E
-------------------|--------------------|------------------------|
-------------------|--------------------|------------------------|
--7----------------|--3--------1--------|------------------------|
-------------------|--------------------|--0---------------0-----|


                                                               |---3--|
  E  E  Q    H           E  E  E  E  E  E  Q       E  E  E  E  E   E  E
----------------------|-------------------------|------------------------|
----------------------|-------------------------|------------------------|
----------------------|-------------------------|---------------------5--|
--0-------------------|-----0-----0-----0--5----|--0-----0-----5h--7-----|


              |---3--|
  E  E  E  E  E   E  E     E  E  E  E  E  E  E  E     E  E  E  E  E  E  E  E
------------------------|--------------------------|--------------------------|
------------------------|--------------------------|-----5-----5--4--4--------|
---------------------5--|--7--5-----7-----7-----7--|--------7-----------5-----|
--0-----0-----5h--7-----|--------7-----------------|-----------------------7--|


              |---3--|                 |---3--|
  E  E  E  E  E   E  E     E  E  E  E  E   E  E     E  E  E  E  E  E  E  E
------------------------|------------------------|--------------------------|
------------------------|------------------------|--------------------------|
---------------------5--|---------------------5--|--7--5-----7-----7-----7--|
--0-----0-----5h--7-----|--0-----0-----5h--7-----|--------7-----------------|


                            |---3--|                 |---3--|
  E  E  Q       E  E  E  E  E   E  E     E  E  E  E  E   E  E
-------------|------------------------|------------------------|
-----5--7----|------------------------|------------------------|
-------------|---------------------5--|---------------------5--|
-------------|--0-----0-----5h--7-----|--0-----0-----5h--7-----|


  E  E  E  E  E  E  E  E     E  E  E  E  E  E  E  E
--------------------------|--------------------------|
--------------------------|-----5-----5--4--0--------|
--7--5-----7-----7-----7--|--------7-----------2-----|
--------7-----------------|-----------------------2--|


  E  E  E  E  E  E  E  E     S  S  E  E  E  S  S  E  E  E
--------------------------|--------------------------------|
--------------------------|--------------------------------|
--------------------------|--------------------------------|
--L--2--2--2--2--2--2--2--|--2h-3p-2--2--2--2h-3p-2--2--2--|


  E  E  E  E  E  E  E  E     Q    E  E  E  E  E  E
--------------------------|-------------------------|
-----4--------------------|-------------------------|
--------------------------|-------------------------|
--2--------2-----2-----0--|--2----2--2--2--2--2--2--|


  S  S  E  E  E  S  S  E  E  E     E  E  E  E  E  E  E  E
--------------------------------|--------------------------|
--------------------------------|-----4-----4-----4-----x--|
--------------------------------|--------------------------|
--2h-3p-2--2--2--2h-3p-2--2--2--|--2-----------------------|


    Q    E  E  E  E  E  E       E  E     E   E   Q.     E
|--------------------------|-------------------------------|
|*-------------------------|-------------------------------|
|*--5----5--0--5--5--5--5--|--5g9--9--9g12--12--12---------|
|--------------------------|----------------------------2--|


  Q    E  E  E  E  E  E     E  E  E  E  E  E  E  E
-------------------------|--------------------------|
-------------------------|--4--2--------4-----------|
-------------------------|--------4--------4-----5--|
--L----2--2--2--2--2--2--|--------------------------|


  E  E  E  E    E  E  E  E        E   E   E   E   E   Q    E
----------------------------|---------------------------------|
----------------------------|---------------------------------|
--L--5--5--5--5g9--9--9--9--|--9g12--12--12--12--12--10-------|
----------------------------|------------------------------2--|


  E  E  E  E  E  E  E  E     E  E  E  E  E  E  E  E
--------------------------|--------------------------|
--------------------------|--4--2--------4-----------|
--------------------------|--------4--------4-----5--|
--L--2--2--2--2--2--2--2--|--------------------------|


  E  E  E  E   E   E   E   E      E   E   E   E  E   E   E  E
------------------------------|--------------------------------|
------------------------------|--12----------12--L-------------|
--L--5--9--9--10--10--12--12--|------12-------------12---------|
------------------------------|----------10-------------10--2--|


  E  E  E  E  E  E  E  E     E  E  E  E  E  E  E  E     E  E  E  E  Q    E  E
--------------------------|--------------------------|-------------------------|
--------------------------|--------------------------|-------------------------|
--------------------------|--------------------------|--3-----3-------------3--|
--L--0--0--2--2--2--2--2--|--2--0-----2--L--2--2--2--|-------------------------|


  E  E  E  E  E  E     E  E  E  E  Q    E  E     E  E  E  E  E  E  E  E
--------------------|-------------------------|--------------------------|
--------------2--2--|-------------------------|--------------2-----------|
-----3-----3--------|--3-----3-------------3--|-----3--5--5-----5--3--0--|
--------------------|-------------------------|--------------------------|


  E  E  E  E  Q    E  E     E  E  E  E  E  E  E  E     E  E  E  E  E  E  E  E
-------------------------|--------------------------|--------------------------|
-------------------------|--------------2--2--------|--------------------------|
--3-----3-------------3--|-----3-----5--------3-----|--5--5--5--5--5--5--5--5--|
-------------------------|--------------------------|--------------------------|


  E  E  E  E  E  E  E  E     Q    E  E  E  E  E  E     Q    E  E  E  E  E  E
--------------------------|-------------------------|-------------------------|
--------------------------|-------------------------|-------------------------|
-----2--2-----2--2--------|-------------------------|-------------------------|
-----------------------0--|--L----3-----2--------0--|--L----3-----2--------2--|


  E  E  E  E  S  S  E  E  E     E  E  E  E  E  E  E  E
-----------------------------|--------------------------|
-----------------------------|--------------------------|
-----------------------------|--------------------------|
--L--2--2--2--2h-3p-2--2--2--|-----2-----2-----2-----0--|


  Q    E  E  E  E  E  E     Q    E  E  E  E  E  E
-------------------------|-------------------------|
-------------------------|-------------------------|
-------------------------|-------------------------|
--L----3-----2--------0--|--L----3-----2--------2--|


  E  E  E  E  S  S  E  E  E     E  E  E  E  E  E  E  E
-----------------------------|---------------------------||
-----------------------------|--------------------------*||
-----------------------------|--------------------------*||
--L--2--2--2--2h-3p-2--2--2--|-----2-----2-----2-----0---||


  E  E  E  E  E  E  E  E     Q    E  E  E  E  E  E     E  E  E  E  E  E  E  E
--------------------------|-------------------------|--------------------------|
--------------------------|-------------------------|--------------------------|
--------------------------|--7----7--7--7--7--7--7--|--7--7--5-----5-----7--7--|
-----2-----2-----2-----2--|-------------------------|-----------7-----7--------|


  E  E  E  E  E  E  E  E     E  E  E  E  E  E  E  E
--------------------------|--------------------------|
--------------------------|--------------------------|
--L--7--7--7--7--7--7--7--|--7--7--7--7--7--7--7--2--|
--------------------------|--------------------------|


  E  E  E  E  E  E  E  E     E  E  E  E  E  E  E  E
--------------------------|--------------------------|
--------------------------|--------------------------|
--L--2--2--2--2--2--2--2--|--2--3--2--0--2--0--3--2--|
--------------------------|--------------------------|


  E  E  E  E  E  E  E  E     E  E  E  E  E  E  E  E
--------------------------|--------------------------|
--------------------------|--------------------------|
--L--2--2--2--2--2--2--2--|--2--------0--0--------2--|
--------------------------|-----3--2--------3--2-----|


  E  E  E  E  E  E  E  E     E  E  E  E  E  E  E  E
--------------------------|--------------------------|
--------------------------|--------------------------|
--L--2--2--2--2--2--2--2--|--2--3--2--0--2--0--3--2--|
--------------------------|--------------------------|


  E  E  E  E  E  E  E  E     E  E  E  E  E  E  E  E     Q.     Q.     Q
--------------------------|--------------------------|---------------------|
--------------------------|--------------------------|---------------------|
--L--2--2--2--2--2--2--2--|--2--3--2--0--------------|--1------0-----------|
--------------------------|--------------3--2--1--0--|----------------2----|


  W                   Q.     Q.     Q       W
-------------------|---------------------|-------------------|
-------------------|---------------------|-------------------|
-------------------|--1------0-----------|-------------------|
--L----------------|----------------2----|--L----------------|


  Q.     Q.     Q       Q    Q    Q    Q       E  E  E  E  E  E  E  E
---------------------|----------------------|--------------------------|
---------------------|----------------------|--------------------------|
--3------2-----------|-----------------2----|--3--3--3--3--3--3--3--3--|
----------------4----|--L----3----4---------|--------------------------|


  E  E  E  E  E  E  E  E     E  E  E  E  E  E  E  E
--------------------------|--------------------------|
--------------------------|--------------------------|
--1--0-----0--1-----4-----|--4--3--3--3--3--3--3--3--|
--------------------------|--------------------------|


  E  E  E  E  E  E  E  E     E  E  E  E  E  E  E  E
--------------------------|--------------------------|
--3--1--------------------|--------------------------|
-----------1-----1--4-----|--4--3--3--3--3--3--3--3--|
--------------------------|--------------------------|


  E  E  E  E  E  E  E  E     E  E  E  E  E  E  E  E
--------------------------|--------------------------|
--------------------------|--------------------------|
--1--0-----0--1-----4-----|--4--3--3--3--3--3--3--3--|
--------------------------|--------------------------|


  E  E  E  E  E  E  E  E     E  E  E  E  E  E  E  E     Q    E  E  Q    Q
--------------------------|--------------------------|-----------------------|
--------------------------|--------------------------|-----------------------|
--3--3--3--3--3--3--3--3--|--------------------------|-----------------------|
--------------------------|--4--3--3--3--3--3--3--3--|--1-------4--L----4----|


  E  E  E  E  E  E  E  E     Q    E  E  Q    Q       E  E  E  E  E  E  E  E
--------------------------|-----------------------|--------------------------|
--------------------------|-----------------------|--------------------------|
--------------------------|-----------------------|--------------------------|
--4--3--3--3--3--3--3--3--|--1-------4--L----4----|--4--3--3--3--3--3--3--3--|


  Q    E  E  Q    Q       Q.     Q.     Q       E  Q.     Q    Q
-----------------------|---------------------|----------------------|
-----------------------|---------------------|----------------------|
-----------------------|---------------------|------------5----6----|
--1-------4--L----4----|--4------5------6----|--L--7----------------|


  W                   W                   W
-------------------|-------------------|-------------------|
-------------------|-------------------|-------------------|
--7----------------|--L----------------|--L----------------|
-------------------|-------------------|-------------------|


  H        Q    E  E     E  E  E  E  E  E  E  E
----------------------|--------------------------|
----------------------|--------------------------|
----------------------|--------------------------|
-------------------2--|--L--2--2--2--2--2--2--2--|


  S  S  E  E  E  S  S  E  E  E     E  E  E  E  E  E  E  E
--------------------------------|--------------------------|
--------------------------------|-----4-----4-----4--------|
--------------------------------|-----------------------5--|
--2h-3p-2--2--2--2h-3p-2--2--2--|--2-----------------------|


  Q    E  E  E  E  E  E     E    E   E   E   E   Q    E
-------------------------|-------------------------------|
-------------------------|-------------------------------|
--5----5--0--5--5--5--5--|--5s--12--12--12--12--12-------|
-------------------------|----------------------------2--|


  E  E  E  E  E  E  E  E     E  E  E  E  E  E  E  E
--------------------------|--------------------------|
--------------------------|--4--2-----4--2-----------|
--------------------------|--------4--------4-----5--|
--L--2--2--2--2--2--2--2--|--------------------2-----|


  E  E  E  E    E  E  E  E        E   E   E   E   E   Q    E
----------------------------|---------------------------------|
----------------------------|---------------------------------|
--L--5--5--5--5g9--9--9--9--|--9g12--12--12--12--12--10-------|
----------------------------|------------------------------2--|


  E  E  E  E  E  E  E  E     E  E  E  E  E  E  E  E
--------------------------|--------------------------|
--------------------------|--4--2-----4--2-----------|
--------------------------|--------4--------4-----5--|
--L--2--2--2--2--2--2--2--|--------------------2-----|


  E  E  E  E  E  E  E  E     E  E  E  E  E  E  E  E
--------------------------|--------------------------|
--------------------------|--------------------------|
--L--5--5--5--5--5--5--5--|--5--5--5--5--5--5--5--3--|
--------------------------|--------------------------|


  E  E  E  E  E  E  E  E     E  E  E  E  E  E  E  E
--------------------------|--------------------------|
--------------------------|--------------------------|
--L--3--3--3--3--3--3--3--|--3--3--3--3--3--3-----5--|
--------------------------|--------------------5-----|


  E  E  E  E  E  E  E  E     E  E  E  E  E  E  E  E
--------------------------|--------------------------|
--------------------------|--------------------------|
--L--5--5--5--5--5--5--5--|--L--5--5--5--5--5--5--5--|
--------------------------|--------------------------|


  E  E  E  E  E  E  E  E     E  E  E  E  E  E  E  E
--------------------------|--------------------------|
--------------------------|-----4--4-----4--4--------|
-----7--7-----7--7--------|-----------------------2--|
-----------------------0--|--------------------------|


  E  E  E  E  E  E  E  E     E  E  E  E  E  E  E  E
--------------------------|--------------------------|
--------------------------|--------------------------|
--L--2--2--2--2--2--2--2--|--L--2--2--2--2--0--------|
--------------------------|-----------------------3--|


  E  E  E  E  E  E  E  E     E  E  E  E  E  E  E  E
--------------------------|--------------------------|
--------------------------|--------------------------|
--------------------------|-----------------------2--|
--L--3--3--3--3--3--3--3--|--3--2-----3-----2--------|


  E  E  E  E  E  E  E  E     E  E  E  E  E  E  E  E
--------------------------|--------------------------|
--------------------------|--------------------------|
--L--2--2--2--2--2--2--2--|--L--2--2--2--2--0--------|
--------------------------|-----------------------3--|


  E  E  E  E  E  E  E  E     E  E  E  E  E  E  E  E
--------------------------|--------------------------|
--------------------------|--------------------------|
--------------------------|-----------------------2--|
--L--3--3--3--3--3--3--3--|--3--2-----3-----2--------|


  E  E  E  E  E  E  E  E     E  E  E  E  E  E  E  E
--------------------------|--------------------------|
--------------------------|--------------------------|
--L--2--2--2--2--2--2--2--|--L--2--2--2--2--0--------|
--------------------------|-----------------------3--|


  E  E  E  E  E  E  E  E     E  E  E  E  E  E  E  E
--------------------------|--------------------------|
--------------------------|--------------------------|
--------------------------|-----------------------2--|
--L--3--3--3--3--3--3--3--|--3--2-----3-----2--------|


  E  E  E  E  E  E  E  E     E  E  E  E  E  E  E  E     W
--------------------------|--------------------------|-------------------|
--------------------------|--------------------------|-------------------|
--L--2--2--2--2--2--2--2--|--L--2--2--2--2--0--------|-------------------|
--------------------------|-----------------------1--|--L----------------|


  W                   S  S  E  E  E  S  S  E  E  E     E  E  E  E  E  E  Q
-------------------|--------------------------------|-------------------------|
-------------------|--------------------------------|-----4-----4-----4-------|
-------------------|--------------------------------|-------------------------|
--L----------------|--2h-3p-2--2--2--2h-3p-2--2--2--|-------------------------|


-------||
-------||
-------||
-------||


Duration Legend
---------------
W - whole
H - half
Q - quarter
E - 8th
S - 16th
T - 32nd
X - 64th
. - note dotted
|-n-|  - n-tuplets


Tablature Legend
----------------
L - tied note
x - dead note
g - grace note
(n) - ghost note
> - accentuded note
NH - natural harmonic
AH - artificial harmonic
TH - tapped harmonic
SH - semi harmonic
PH - pitch harmonic
h - hammer on
p - pull off
b - bend
br - bendRelease
pb - preBend
pbr - preBendRelease
brb - bendReleaseBend
\n/ - tremolo bar dip
\n - tremolo bar dive
-/n - tremolo bar Release up
/n\ - tremolo bar inverted dip
/n - tremolo bar return
-\n - tremolo bar Release down
S - shift slide
s - legato slide
/ -  slide into from below or out of upwards
\ -  slide into from above or out of downwards
~ - vibrato
W - wide vibrato
tr - trill
TP - tremolo picking
T - tapping
S - slap
P - pop
< - fade in
^ - brush up
v - brush down
comments
We did not receive enough feedback on this tab! Please rate:
1 2 3 4 5
I want to post or [tab]
guest
You may want to rate the tab now too:
select rating
Please do not post tabs as comments. Select "correction" instead!