Oops, an error
Loading. Please wait.

Jumpin At The Shadows Tab

4,788 views 12 this week
no commentswrite comment
1 2 3 4 5
excellent!
x 2
Autoscroll
+/-
esc
set tempo
stop
Contributor
Hey! There's an official Ultimate Guitar app which is ideal
for learning songs when you're away from computer. Get the app
WARNING: You are trying to view
                                    content from Ultimate-Guitar.com
                                    in an unauthorized application,
                                    which is prohibited.

                                    Please use an official Ultimate
                                    Guitar Tabs application for iPhone,
                                    iPad or Android to access legitimate
                                    chords, guitar, bass, and drum tabs
                                    from Ultimate-Guitar.com database.

                                    Type "ultimate guitar tabs" in Apple
                                    App Store's or Android Market's
                                    search to find the application.
As recorded by Gary Moore
(From the 1992 Album AFTER HOURS)

Music by Duster Bennett Arranged by Gary Moore

Gtr I (E A D G B E) - 'Gary Moore - electric w/slight overdrive'

Intro
  Q.=47
 12/8
  Gtr I
   ~~                                    ~~~~~
   E  e  e    a      +Q     a      +E   +Q.    H.
|----------|-------------------------------------------|
|----10-12-|-12b14==(12)r--12b14==(12)-(12)r-----------|
|-11-------|-------------------------------------------|
|----------|-------------------------------------------|
|----------|-------------------------------------------|
|----------|-------------------------------------------|


                      ~~
             |--3--|            |--3--|
  Q.   E  E  S  S  S  E  E E Q  S  S  S
|---------------------------------------|
|-----------10-12----10-12-----------10-|
|--------11-------11--------------11----|
|---------------------------------------|
|---------------------------------------|
|---------------------------------------|


                         ~~~~~~~~~~~~~                                      ~~~~~
                |--3--|
   a      +E    S  S  S  E  +Q    +S    S  a      +S   +T       +T   +Q    +Q.
|-12b14==(12)r-12-----------------------------------------------------------------|
|-----------------10-10-10-(10)--(10)-----12b13==(12)r(12)b14==(12)-(12)--(12)r---|
|-------------------------------------h11-----------------------------------------|
|---------------------------------------------------------------------------------|
|---------------------------------------------------------------------------------|
|---------------------------------------------------------------------------------|


                                            ~~
                                      |3-|            |--3--|
  Q.   S  T      +T   S  a      +S    E  S  E  E E Q  S  S  S
|--------12b14==(12)r-----------------------------------------|
|-----------------------12b13==(12)r-12-10-10--------------10-|
|---------------------------------------------11--------11----|
|-------------------------------------------------------------|
|-------------------------------------------------------------|
|-------------------------------------------------------------|

  ~~                      ~~~
  Q   E  a      +Q     E  Q.    +Q   S   S
|-----10-------------------------------------|
|-13-----12b13==(12)r--12-10----(10)----(10)-|
|--------------------------------------------|
|--------------------------------------------|
|--------------------------------------------|
|--------------------------------------------|


       ~~~~                    ~~~
                                                  |-3--|
   E  +E   E  S      +E.  +E   Q.   S S E    +S  +T  T T
|---------10--------------------------2------------------|
|-13-(13)----12b13==(12)r(12)-10-------------------------|
|---------------------------------------4b5==(4)r(4)p2---|
|------------------------------------------------------4-|
|--------------------------------------------------------|
|--------------------------------------------------------|


      ~                  ~~~~~~~
  |3|           |3| |-3--|
  e S Q  +Q   a E S E a  S  +Q    +E  E.  S
|-------------------5-----------------------|
|-5---------------5---8s10-(10)--(10)----10-|
|---2-2--(2)--4s6---------------------------|
|-------------------------------------------|
|-------------------------------------------|
|-------------------------------------------|


                                                                Verse 1
                                               ~~~~~~
   |------3-------|
   S        +S    S  S  S  a      +S     S   S S +Q   H.         W
|----------------10-11-12-------------------------------------||------|
|-13b14.5==(13)r----------12b13==(12)r-(12)-10----------------||------|
|----------------------------------------------9-(9)----------||------|
|-------------------------------------------------------------||------|
|-------------------------------------------------------------||------|
|-------------------------------------------------------------||------|


                                  ~~~
                       |--3--|
  H.      Q.   E.   S  S  S  S    H.      H.        W          H.       H.
|------------------------------|------------------|----------|---------(2)----|
|---------------------10-12----|-10---------------|----------|-5--------2-----|
|------------------11-------11-|------------------|----------|-5--------2-----|
|------------------------------|------------------|----------|-4--------1-----|
|------------------------------|------------------|----------|-5--------2-----|
|------------------------------|------------------|----------|----------------|


                                     ~~~~~~~
  H.      H.        a Q.   Q  S S S  S  +Q    +e   E.  S
|-----------------|---------------5----------------------|
|-5-------7-------|---5-------5-7---10-(10)--(10)\----10-|
|-5-------7-------|-5h6----------------------------------|
|-4-------7-------|--------------------------------------|
|-5-------7-------|--------------------------------------|
|-----------------|--------------------------------------|


                    ~~~~~~~             ~~
              |--3--|             |-3-|
   T  T  T T  S  S  S  +E   +E  E S S S H.
|-10h11-10p8----------------------------------||
|------------10-10-10-(10)-(10)---8p5---5-----||
|-------------------------------------7-------||
|---------------------------------------------||
|---------------------------------------------||
|---------------------------------------------||


 Verse 2
                                                      ~~
  W              H.      Q.   S a T T E S      +S     H.      H.        W
|--------------|----------------5-5-----------------|-----------------|------|
|--------------|----------------5h7-5---------------|-----------------|------|
|--------------|----------------------7-5b5.5==(5)r-|-----------------|------|
|--------------|------------------------------------|-7---------------|------|
|--------------|------------------------------------|-----------------|------|
|--------------|------------------------------------|-----------------|------|


   H.       H.         H.       H.        W
|-------------------|-------------------|------|
|-(5)------(2)------|-(5)------(7)------|------|
|--5--------2-------|--5--------7-------|------|
|--4--------1-------|--4--------7-------|------|
|--5--------2-------|--5--------7-------|------|
|-------------------|-------------------|------|


                                ~~~
                     |--3--|
  a H.      Q.   Q   S  S  S    H.       +Q.   E.  S  e
|----------------------------|--------------------------||
|---5---------------10-12----|-10-------(10)---------10-||
|-5h6---------------------11-|--------------------11----||
|----------------------------|--------------------------||
|----------------------------|--------------------------||
|----------------------------|--------------------------||


 Bridge - Solo
                       ~~~~~~~~
                   |-3-|
   a      +S    S  S  +E   +E   +Q     S   S  a      +S.   a       +T   +Q        +E   Q
|-12b14==(12)r-12---------------------------------------------------------------------------|
|-----------------10-(10)-(10)-(10)--(10)----12b13==(12)r(12)b13==(12)-(12)b15===(12)r------|
|-----------------------------------------11------------------------------------------------|
|-------------------------------------------------------------------------------------------|
|-------------------------------------------------------------------------------------------|
|-------------------------------------------------------------------------------------------|


                                 ~~
       |3-|  |3-|  |--3--| |3-|  |3-|      |3-|
  Q.   E  S  E  S  S  S  S E  S  E  s E Q  E  S
|-----------12-11-10----------------------------|
|--------10----------13-10------10-12--------10-|
|----------------------------11-----------------|
|-----------------------------------------------|
|-----------------------------------------------|
|-----------------------------------------------|


                            ~~~~~~~
   |---3---|    |3-|
   E      +S    E  S  T  T  S  +Q    +S   S  a        +E   Q  Q.
|--------------12-14-----------------------------------------------|
|-12b14==(12)r-------10-10-10-(10)--(10)-12-12b13.5==(12)r---------|
|------------------------------------------------------------------|
|------------------------------------------------------------------|
|------------------------------------------------------------------|
|------------------------------------------------------------------|


                              ~~~
                       |-3-|             |--3--|
  Q  S    +S   S S S S S S S +Q.   +E  E S  S  S
|---------------------------------------------12-|
|----7b8==(7)r-7-5-------------------------14----|
|------------------7-5-4-------------------------|
|------------------------7-7-(7)---(7)-----------|
|------------------------------------------------|
|------------------------------------------------|


         ~~~~                         ~~
  |3-|              |--3--|  |--3--|          |3-|
  S  E  +Q    +Q    S  S  S  S  S  S  E  E Q  S  E
|---14-(14)--(14)--12------------------------------|
|---------------------14-12-10----------10------14-|
|------------------------------11-11-11------------|
|--------------------------------------------------|
|--------------------------------------------------|
|--------------------------------------------------|


                                                                 ~~~~
   a      +T    T  T  T  T  T  S  S  S  T  T  T  T  S  S  S  S  +Q.    +e  S  S  S  S
|--------------14-16-14h16p14----14---------------------------------------------------|
|-17b18==(17)r----------------17----17-14h17p14----14---------------------------------|
|-----------------------------------------------16----14-13---------------------14----|
|-----------------------------------------------------------16-(16)---(16)---16----16-|
|-------------------------------------------------------------------------------------|
|-------------------------------------------------------------------------------------|


                       ~~                                 ~~~~~~~~
                                |3-|                          |-3--|
   a      +S   +T   T  Q   +Q   E  S  T      +T   +T   T  E  +E    S  Q.
|---------------------------------14----------------------------------------|
|---------------------------------------------------------------------------|
|-16b17==(16)r(16)p14-16--(16)-------16b17==(16)r(16)p14-16-(16)p(14)-------|
|---------------------------------------------------------------------------|
|---------------------------------------------------------------------------|
|---------------------------------------------------------------------------|


                ~~               ~~               ~~~
                                                           |3-|       |--3--|
   a      +E    Q   a      +E    Q   a      +E    E.  +S   S  E S  S  S  S  S
|--------------------------------------------------------------------17-19----||
|-17b19==(17)r-17--17b19==(17)r-17--17b19==(17)r-17--(17)\---17---19-------19-||
|-----------------------------------------------------------------------------||
|-----------------------------------------------------------------------------||
|-----------------------------------------------------------------------------||
|-----------------------------------------------------------------------------||


 Guitar Solo
                          ~~~~~~~~~~~~~~~~~
   S        +S    a      +Q    +Q.    +Q.    Q   S  S
|-19b20.5==(19)r-19b21==(19)--(19)---(19)r---------17--|
|-----------------------------------------------19-----|
|------------------------------------------------------|
|------------------------------------------------------|
|------------------------------------------------------|
|------------------------------------------------------|


                                                          ~~~~~~~~~~~~
   E  a      +S    S  S  S  S  S  S  +E   S  a      +E    E  +E   +Q.
|-20-20b22==(20)r-20-19-17-19----17-(17)-19-19b21==(19)r----------------|
|-----------------------------19-------------------------19-(19)-(19)---|
|-----------------------------------------------------------------------|
|-----------------------------------------------------------------------|
|-----------------------------------------------------------------------|
|-----------------------------------------------------------------------|


                             ~~~~
  Q.   E  T  T  T  T  S  S  +Q.    +E  S  S  S  S
|--------------------------------------------------|
|--------20-17-------------------------------------|
|--------------19-17------------------------14-----|
|--------------------19-19-(19)---(19)---16----16--|
|--------------------------------------------------|
|--------------------------------------------------|


           ~~~~                                     ~~
                                              |--3--|
   a      +Q.    +E   +S   a      +S    S  S  S  S  S  +Q   Q   S  S
|-----------------------------------------------------------------17-|
|-17b19==(17)---(17)r(17)--------------------------------------------|
|-------------------------16b17==(16)r-16p14-16----14-(14)-----11----|
|-----------------------------------------------16-------------------|
|--------------------------------------------------------------------|
|--------------------------------------------------------------------|


                    ~~             ~~~~
                                               |--3--|
   Q   a      +E    Q   E  a      +Q.    +Q    S  S  S
|-20--20b22==(20)r-20--19---------------------------17-|
|-------------------------20b22==(20)---(20)r----19----|
|------------------------------------------------------|
|------------------------------------------------------|
|------------------------------------------------------|
|------------------------------------------------------|


   ~~               ~~     ~~
                                                         |--3---|
   Q   a      +E    Q   E  E  +E  S  e  S   S      +S   +S   S  S
|-20--20b22==(20)r-20--19-17-(17)-x----(0)------------------------|
|-----------------------------------19----------------------------|
|------------------------------------------16b17==(16)r(16)p14----|
|--------------------------------------------------------------16-|
|-----------------------------------------------------------------|
|-----------------------------------------------------------------|


             ~~~~                                   ~~
   S  T  T  +Q    +E   +E   E  E  E  S        +S    Q   e
|-----------------------------17\-------------------------|
|-17------------------------------------------------------|
|----14-14-(14)--(14)-(14)\---------17b17.5==(17)r-14--14-|
|---------------------------------------------------------|
|---------------------------------------------------------|
|---------------------------------------------------------|


                                       ~~~~        ~~~~~~~~~~
   |---3---|    |3-|          |-3--|
   E      +S    E  S  a      +E    S  +E  E  S  S  Q.    +E   +Q
|-------------------------------------------------------------------||
|--------------15-17------------------------------------------------||
|-17b18==(17)r-------17b18==(17)r-14-(14)---14-13-12----(12)-(12)\--||
|-------------------------------------------------------------------||
|-------------------------------------------------------------------||
|-------------------------------------------------------------------||


 Verse 3
     ~~~~~~
   |3|
   E S +Q   +Q.   H.        W              W
|----5-(5)--(5)-----------|--------------|------|
|-------------------------|--------------|------|
|-/6----------------------|--------------|------|
|-------------------------|--------------|------|
|-------------------------|--------------|------|
|-------------------------|--------------|------|


  W               H.       H.         H.       H.
|--------------|-------------------|-----------------|
|--------------|-(5)------(2)------|-(5)------(7)----|
|--------------|--5--------2-------|--5--------7-----|
|--------------|--4--------1-------|--4--------7-----|
|--------------|--5--------2-------|--5--------7-----|
|--------------|-------------------|-----------------|


  a Q.   E  E  E  S        +S    E  E  a      +e    S  S  e
|-------------------------------10-12-----------------------|
|---5---------10-13b13.5==(13)r-------12b13==(12)r-10-12----|
|-5h6------11--------------------------------------------11-|
|-----------------------------------------------------------|
|-----------------------------------------------------------|
|-----------------------------------------------------------|


         H.=H
   ~~~
   E. E.  E E  E +H.
|-----------------------||
|-10-----^8---^7-(7)----||
|--------^7---^6-(6)----||
|--------^9---^7-(7)----||
|-----------------------||
|-----------------------||


 Cadenza - Free Time
                                                       ~~~
              |-3-|
  a    +S   S T T T S S S a S S S a S S S S S S S a E +Q    E
|--------------------------------------------------------------*|
|-7b8==(7)r-7-5h7p5---5---------7---5----------------------10\-*|
|-------------------7---7-5h6---7-5h6--------------------------*|
|-----------------------------7-------7-5---------5s7-(7)------*|
|-----------------------------------------7-6-5-4--------------*|
|--------------------------------------------------------------*|
comments
We did not receive enough feedback on this tab! Please rate:
print report bad tab
1 2 3 4 5
I want to post or [tab]
guest
You may want to rate the tab now too:
select rating
Please do not post tabs as comments. Select "correction" instead!