Oops, an error
Loading. Please wait.

Cassis Tab

ver2
ver2

Intro

Whole song

More versions @911Tabs.com
1,962 views 6 this week
no commentswrite comment
1 2 3 4 5
please rate
Autoscroll
+/-
esc
set tempo
stop
Contributor
Difficulty
Tuning
intermediate
C G C F A D
Hey! There's an official Ultimate Guitar app which is ideal
for learning songs when you're away from computer. Get the app
WARNING: You are trying to view
                                    content from Ultimate-Guitar.com
                                    in an unauthorized application,
                                    which is prohibited.

                                    Please use an official Ultimate
                                    Guitar Tabs application for iPhone,
                                    iPad or Android to access legitimate
                                    chords, guitar, bass, and drum tabs
                                    from Ultimate-Guitar.com database.

                                    Type "ultimate guitar tabs" in Apple
                                    App Store's or Android Market's
                                    search to find the application.
-------------------------------------------------------------------------------
                             CASSIS - The GazettE
-------------------------------------------------------------------------------
Tuning – Full Step Down-(DGCFAD) 
MAIN RIFF
d|--12-12-12-12-12-12-12-12-12-12-12-12-12-12-12-12-|
A|--12-12-12-12-12-12-12-12-12-12-12-12-12-12-12-12-|
F|--13-13-13-13-13-13-13-13-13-13-13-13-13-13-13-13-|
C|--11-11-11-11-11-11-11-11-11-11-11-11-11-11-11-11-|
G|--------------------------------------------------|
D|--------------------------------------------------|

d|--11-11-11-11-11-11-11-11-12-12-12-12-12-12-12-12-|
A|--12-12-12-12-12-12-12-12-12-12-12-12-12-12-12-12-|
F|--11-11-11-11-11-11-11-11-13-13-13-13-13-13-13-13-|
C|--13-13-13-13-13-13-13-13-14-14-14-14-14-14-14-14-|
G|--------------------------------------------------|
D|--------------------------------------------------|

d|--14-14-14-14-14-14-14-14-14-14-14-14-14-14-14-14-|
A|--12-12-12-12-12-12-12-12-12-12-12-12-12-12-12-12-|
F|--13-13-13-13-13-13-13-13-13-13-13-13-13-13-13-13-|
C|--11-11-11-11-11-11-11-11-11-11-11-11-11-11-11-11-|
G|--------------------------------------------------|
D|--------------------------------------------------|

d|--11-11-11-11-11-11-11-11-12-12-12-12-12-12-12-12-|
A|--12-12-12-12-12-12-12-12-12-12-12-12-12-12-12-12-|
F|--11-11-11-11-11-11-11-11-13-13-13-13-13-13-13-13-|
C|--13-13-13-13-13-13-13-13-14-14-14-14-14-14-14-14-|
G|--------------------------------------------------|
D|--------------------------------------------------|

d|--12-12-12-12-12-12-12-12-12-12-12-12-12-12-12-12-|
A|--12-12-12-12-12-12-12-12-12-12-12-12-12-12-12-12-|
F|--13-13-13-13-13-13-13-13-13-13-13-13-13-13-13-13-|
C|--11-11-11-11-11-11-11-11-11-11-11-11-11-11-11-11-|
G|--------------------------------------------------|
D|--------------------------------------------------|

d|--11-11-11-11-11-11-11-11-12-12-12-12-12-12-12-12-|
A|--12-12-12-12-12-12-12-12-12-12-12-12-12-12-12-12-|
F|--11-11-11-11-11-11-11-11-13-13-13-13-13-13-13-13-|
C|--13-13-13-13-13-13-13-13-14-14-14-14-14-14-14-14-|
G|--------------------------------------------------|
D|--------------------------------------------------|

d|--14-14-14-14-14-14-14-14-14-14-14-14-14-14-14-14-|
A|--12-12-12-12-12-12-12-12-12-12-12-12-12-12-12-12-|
F|--13-13-13-13-13-13-13-13-13-13-13-13-13-13-13-13-|
C|--11-11-11-11-11-11-11-11-11-11-11-11-11-11-11-11-|
G|--------------------------------------------------|
D|--------------------------------------------------|

d|--11-11-11-11-11-11-11-11-12-12-12-12-12-12-12-12-|
A|--12-12-12-12-12-12-12-12-12-12-12-12-12-12-12-12-|
F|--11-11-11-11-11-11-11-11-13-13-13-13-13-13-13-13-|
C|--13-13-13-13-13-13-13-13-14-14-14-14-14-14-14-14-|
G|--------------------------------------------------|
D|--------------------------------------------------|








VERSE

d|--------------|--------------|--------------|-------------------------|--------------|
A|--------------|--------------|--------------|-------------------------|--------------|
F|-----4--------|-----4--------|-----4--------|-----4----------4--------|-----4--------|
C|--------2-----|--------2-----|--------4-----|--------4----------4-----|--------2-----|
G|--4--------4--|--0--------0--|--2--------2--|-------------2--------2--|--4--------4--|
C|--------------|--------------|--------------|--0----------------------|--------------|

d|--------------|----------------------|--------------|--------------|--------------|
A|--------------|----------------------|--------------|--------------|--------------|
F|-----4--------|-----4----------4-----|--------4-----|-----4--------|-----4--------|
C|--------2-----|--------4----------4--|-----2-----2--|--------2-----|--------2-----|
G|--0--------0--|--2-------------------|--4-----------|--4--------4--|--0--------0--|
C|--------------|-------------4--------|--------------|--------------|--------------|

d|-------------------------|--------------|--------------|--------------|-------|
A|-------------------------|--------------|--------------|--------------|----1--|
F|-----4----------4--------|-----4--------|-----4--------|-----4--------|----1--|
C|--------4----------4-----|--------2-----|--------2-----|--------4-----|----1--|
G|-------------2--------2--|--4--------4--|--0--------0--|--2--------2--|----3--|
C|--0----------------------|--------------|--------------|--------------|-------|

RIFF

d|--12-12-12-12-12-12-12-12-12-12-12-12-12-12-12-12-|
A|--12-12-12-12-12-12-12-12-12-12-12-12-12-12-12-12-|
F|--13-13-13-13-13-13-13-13-13-13-13-13-13-13-13-13-|
C|--11-11-11-11-11-11-11-11-11-11-11-11-11-11-11-11-|
G|--------------------------------------------------|
D|--------------------------------------------------|

d|--11-11-11-11-11-11-11-11-12-12-12-12-12-12-12-12-|
A|--12-12-12-12-12-12-12-12-12-12-12-12-12-12-12-12-|
F|--11-11-11-11-11-11-11-11-13-13-13-13-13-13-13-13-|
C|--13-13-13-13-13-13-13-13-14-14-14-14-14-14-14-14-|
G|--------------------------------------------------|
D|--------------------------------------------------|

d|--14-14-14-14-14-14-14-14-14-14-14-14-14-14-14-14-|
A|--12-12-12-12-12-12-12-12-12-12-12-12-12-12-12-12-|
F|--13-13-13-13-13-13-13-13-13-13-13-13-13-13-13-13-|
C|--11-11-11-11-11-11-11-11-11-11-11-11-11-11-11-11-|
G|--------------------------------------------------|
D|--------------------------------------------------|

d|--11-11-11-11-11-11-11-11-12-12-12-12-12-12-12-12-|
A|--12-12-12-12-12-12-12-12-12-12-12-12-12-12-12-12-|
F|--11-11-11-11-11-11-11-11-13-13-13-13-13-13-13-13-|
C|--13-13-13-13-13-13-13-13-14-14-14-14-14-14-14-14-|
G|--------------------------------------------------|
D|--------------------------------------------------|

d|--12-12-12-12-12-12-12-12-12-12-12-12-12-12-12-12-|
A|--12-12-12-12-12-12-12-12-12-12-12-12-12-12-12-12-|
F|--13-13-13-13-13-13-13-13-13-13-13-13-13-13-13-13-|
C|--11-11-11-11-11-11-11-11-11-11-11-11-11-11-11-11-|
G|--------------------------------------------------|
D|--------------------------------------------------|

d|--11-11-11-11-11-11-11-11-12-12-12-12-12-12-12-12-|
A|--12-12-12-12-12-12-12-12-12-12-12-12-12-12-12-12-|
F|--11-11-11-11-11-11-11-11-13-13-13-13-13-13-13-13-|
C|--13-13-13-13-13-13-13-13-14-14-14-14-14-14-14-14-|
G|--------------------------------------------------|
D|--------------------------------------------------|





d|--14-14-14-14-14-14-14-14-14-14-14-14-14-14-14-14-|
A|--12-12-12-12-12-12-12-12-12-12-12-12-12-12-12-12-|
F|--13-13-13-13-13-13-13-13-13-13-13-13-13-13-13-13-|
C|--11-11-11-11-11-11-11-11-11-11-11-11-11-11-11-11-|
G|--------------------------------------------------|
D|--------------------------------------------------|

d|--11-11-11-11-11-11-11-11-12-12-12-12-12-12-12-12-|
A|--12-12-12-12-12-12-12-12-12-12-12-12-12-12-12-12-|
F|--11-11-11-11-11-11-11-11-13-13-13-13-13-13-13-13-|
C|--13-13-13-13-13-13-13-13-14-14-14-14-14-14-14-14-|
G|--------------------------------------------------|
D|--------------------------------------------------|

<-------- VERSE -------->

PRE – CHORUS I( PALM MUTE )

d|----------------------------------------------------------------|
A|-----------7---------7---------------------------12----10-----9-|
F|------9---------9-----------9--------9-----11-------------------|
C|--7-7----7----9----9------9----10-10----10----11----11-----11---|
G|----------------------------------------------------------------|
C|----------------------------------------------------------------|

d|---------------------------------------------------------------|-----------------------------|
A|-------9----7---------7-------------------9-----------12-------|-----------7----9------------|
F|-----------------8---------8--------8-----------9------------9-|------9--------------11----9-|
C|--7-7-----7----9----9----9----10-10----10----11----11-----11---|--7-7----7----9----9-----9---|
G|---------------------------------------------------------------|-----------------------------|
C|---------------------------------------------------------------|-----------------------------|

d|-----------------------------------|-----------------------------|----------------------|
A|--------------9-----------12-------|-----------7----9------------|------------------12--|
F|--------8-----------9------------9-|------9--------------11----9-|-------9----11--------|
C|--10-10----10----11----11-----11---|--7-7----7----9----9-----9---|-10-10----10----11----|
G|-----------------------------------|-----------------------------|----------------------|
C|-----------------------------------|-----------------------------|----------------------|

d|---------------|------------------------------|--------------------------------------|
A|-----10-----9--|-----------7----9-------------|---------------------12-----10-----9--|
F|---------------|------9--------------11----9--|--------9-----11----------------------|
C|--11-----11----|--7-7----7----9----9-----9----|--10-10----10-----11-----11-----11----|
G|---------------|------------------------------|--------------------------------------|
C|---------------|------------------------------|--------------------------------------|

d|-------------------------------|--------------------------------------|----------------------|
A|-------9----7----9-------------|---------------------12-----10-----9--|------9----7----------|
F|----------------------11----9--|--------9-----11----------------------|---------------9---8—-|
C|--7-7-----7----9----9-----9----|--10-10----10-----11-----11-----11----|-7-7-----7---7---7----|
G|-------------------------------|--------------------------------------|----------------------|
C|-------------------------------|--------------------------------------|----------------------|

PRE-CHORUS II

d|---------7--------5--------|-----------------|--------------------------|
A|---------5-----------5-----|--4--------4--4--|--------------------------|
F|--9------5--------------5--|--4--------4--4--|-----------------------1--|
C|---------7-----------------|--4--------4--4--|--------------1--2--4-----|
G|---------------------------|--2--------2--2--|-----0--2--3--------------|
C|---------------------------|-----------------|--4-----------------------|

CHORUS I ( PALM MUTE )

d|--16----------16----------14-----------17-----------|--16----------16-----------|
A|--------17----------17-----------16----------16-----|--------17----------17-----|
F|-----16----16----16----16-----17----17----17----17--|-----18----18----18----18--|
C|----------------------------------------------------|---------------------------|
G|----------------------------------------------------|---------------------------|
C|----------------------------------------------------|---------------------------|

d|--12----------19-----------|--16----------16-----------|--14----------17-----------|
A|--------16----------16-----|--------17----------17-----|--------16----------16-----|
F|-----14----14----16----16--|-----16----16----16----16--|-----17----17----17----17--|
C|---------------------------|---------------------------|---------------------------|
G|---------------------------|---------------------------|---------------------------|
C|---------------------------|---------------------------|---------------------------|

d|--16----------16----------12-----------19----12-----|
A|--------17----------17-----------16-----------------|
F|-----18----18----18----18-----14----14----16----17--|
C|----------------------------------------------------|
G|----------------------------------------------------|
C|----------------------------------------------------|

CHORUS II

d|----------------------------------|---------|------------------------|--19--------17--16--|---|
A|----------------------------------|---------|--16--17--------16--17--|--------------------|---|
F|--4--------/8----9----------8--9--|--/16----|------------------------|--------------------|---|
C|----------------------------------|---------|------------------------|--------------------|-1-|
G|----------------------------------|---------|------------------------|--------------------|---|
C|----------------------------------|---------|------------------------|--------------------|---|

SOLO
                         FB     FB
D|--12-----------------|-14^----14^----14-14--14-12-|---11-12-11-----11----14--------|
A|--12----------12--16-|----------------------------|-------------14----12----10-9---|
F|--12-------13--------|----------------------------|--------------------------------|
C|--------14-----------|----------------------------|--------------------------------|
G|---------------------|----------------------------|--------------------------------|
D|---------------------|----------------------------|--------------------------------|
              FB     FB                                ~~
D|-------|------------------------------------------|----------12---------12-14-------|
A|-----9-|----10^----10^--10-9--7--9--7----7--------|----------12------14-------------|
F|--11---|------------------------------9-----8-----|----------12---------------------|
C|-------|--------------------------------------9---|---------------------------------|
G|-------|----------------------------------------9-|--6--6---------------------------|
D|-------|------------------------------------------|---------------------------------|
               
    FB
D|--14^------14-12-11---12---14-|--------------------------11--12----12-----11-12-14-|
A|------------------------------|--12---------------12--14-----------12--------------|
F|------------------------------|-------------13---------------------12--------------|
C|------------------------------|----------------------------------------------------|
G|------------------------------|----------------------------------------------------|
D|------------------------------|----------------------------------------------------|
    ~~~~~~                ~~~~~~
D|--14------14-14-12-11---12----|
A|------------------------------|
F|------------------------------|
C|------------------------------|
G|------------------------------|
D|------------------------------|

RUKI’s PART

d|--0------0--0-0-0-0-0--0--0--|--4----4--4-4-4-4-4--4--4--|--0----0--0-0-0-0-0--0--0--|
A|--0------0--0-0-0-0-0--0--0--|--4----4--4-4-4-4-4--4--4--|--0----0--0-0-0-0-0--0--0--|
F|--1------1--1-1-1-1-1--1--1--|--5----5--5-5-5-5-5--5--5--|--2----2--2-2-2-2-2--2--2--|
C|--2------2--2-2-2-2-2--2--2--|--6----6--6-6-6-6-6--6--6--|--2----2--2-2-2-2-2--2--2--|
G|--2------2--2-2-2-2-2--2--2--|--6----6--6-6-6-6-6--6--6--|--0----0--0-0-0-0-0--0--0--|
C|--0------0--0-0-0-0-0--0--0--|--4----4--4-4-4-4-4--4--4--|---------------------------|

d|--0------0--0-0-----------------|--0----0--0-0-0-0-0--0--0--|--4----4--4-4-4-4-4--4--4--|
A|--0------0--0-0--x-x--4--4--x-x-|--0----0--0-0-0-0-0--0--0--|--4----4--4-4-4-4-4--4--4--|
F|--2------2--2-2--x-x--4--4--x-x-|--1----1--1-1-1-1-1--1--1--|--5----5--5-5-5-5-5--5--5--|
C|--2------2--2-2--x-x--4--4--x-x-|--2----2--2-2-2-2-2--2--2--|--6----6--6-6-6-6-6--6--6--|
G|--0------0--0-0-------2--2------|--2----2--2-2-2-2-2--2--2--|--6----6--6-6-6-6-6--6--6--|
C|--------------------------------|---------------------------|--4----4--4-4-4-4-4--4--4--|

d|--0----0--0-0-0-0-0--0--0--|
A|--0----0--0-0-0-0-0--0--0--|
F|--2----2--2-2-2-2-2--2--2--|
C|--2----2--2-2-2-2-2--2--2--|
G|--0----0--0-0-0-0-0--0--0--|
C|---------------------------|

<-------- PRE – CHORUS I  -------->

<-------- PRE – CHORUS II -------->

<-------- CHORUS I  -------->

<-------- CHORUS II -------->

d|---------------------------------|--4--4--4--4-4----4-4--4--4--4--|
A|--9--9--9--9-10-10----10-9--9-9--|--4--4--4--4-4----4-4--4--4--4--|
F|--9--9--9--9--9--9-----9-9--9-9--|--5--5--5--5-5----5-5--5--5--5--|
C|--9--9--9--9--9--9-----9-9--9-9--|--6--6--6--6-6----6-6--6--6--6--|
G|--7--7--7--7--7--7-----7-7--7-7--|--6--6--6--6-6----6-6--6--6--6--|
D|---------------------------------|--4--4--4--4-4----4-4--4--4--6--|

d|--5--5--5--5-5----5-5--5--5--5--|--7--7--7--7-7----7-7--7--7--7--|
A|--5--5--5--5-5----5-5--5--5--5--|--7--7--7--7-7----7-7--7--7--7--|
F|--6--6--6--6-6----6-6--6--6--6--|--8--8--8--8-8----8-8--8--8--8--|
C|--7--7--7--7-7----7-7--7--7--7--|--9--9--9--9-9----9-9--9--9--9--|
G|--7--7--7--7-7----7-7--7--7--7--|--9--9--9--9-9----9-9--9--9--9--|
D|--5--5--5--5-5----5-5--5--5--5--|--7--7--7--7-7----7-7--7--7--7--|

d|---------------------------------|--4--4--4--4-4----4-4--4--4--4--|
A|--9--9--9--9-10-10----10-9--9-9--|--4--4--4--4-4----4-4--4--4--4--|
F|--9--9--9--9--9--9-----9-9--9-9--|--5--5--5--5-5----5-5--5--5--5--|
C|--9--9--9--9--9--9-----9-9--9-9--|--6--6--6--6-6----6-6--6--6--6--|
G|--7--7--7--7--7--7-----7-7--7-7--|--6--6--6--6-6----6-6--6--6--6--|
D|---------------------------------|--4--4--4--4-4----4-4--4--4--6--|

d|--5--5--5--5-5----5-5--5--5--5--|--7--7--7--7-7----7-7--7--7--7--|
A|--5--5--5--5-5----5-5--5--5--5--|--7--7--7--7-7----7-7--7--7--7--|
F|--6--6--6--6-6----6-6--6--6--6--|--8--8--8--8-8----8-8--8--8--8--|
C|--7--7--7--7-7----7-7--7--7--7--|--9--9--9--9-9----9-9--9--9--9--|
G|--7--7--7--7-7----7-7--7--7--7--|--9--9--9--9-9----9-9--9--9--9--|
D|--5--5--5--5-5----5-5--5--5--5--|--7--7--7--7-7----7-7--7--7--7--|

d|--0--0--0--0-0----0-0--0--0--0--|--4--4--4--4-4----4-4--4--4--4--|
A|--0--0--0--0-0----0-0--0--0--0--|--4--4--4--4-4----4-4--4--4--4--|
F|--1--1--1--1-1----1-1--1--1--1--|--5--5--5--5-5----5-5--5--5--5--|
C|--2--2--2--2-2----2-2--2--2--2--|--6--6--6--6-6----6-6--6--6--6--|
G|--2--2--2--2-2----2-2--2--2--2--|--6--6--6--6-6----6-6--6--6--6--|
D|--0--0--0--0-0----0-0--0--0--0--|--4--4--4--4-4----4-4--4--4--4--|

d|--------------------------------|--------------------------------|
A|--2--2--2--2-2----2-2--2--2--2--|--4--4--4--4-4----4-4--4--4--4--|
F|--2--2--2--2-2----2-2--2--2--2--|--4--4--4--4-4----4-4--4--4--4--|
C|--2--2--2--2-2----2-2--2--2--2--|--4--4--4--4-4----4-4--4--4--4--|
G|--0--0--0--0-0----0-0--0--0--0--|--2--2--2--2-2----2-2--2--2--2--|
D|--------------------------------|--------------------------------|

d|--0--0--0--0-0----0-0--0--0--0--|--4--4--4--4-4----4-4--4--4--4--|
A|--0--0--0--0-0----0-0--0--0--0--|--4--4--4--4-4----4-4--4--4--4--|
F|--1--1--1--1-1----1-1--1--1--1--|--5--5--5--5-5----5-5--5--5--5--|
C|--2--2--2--2-2----2-2--2--2--2--|--6--6--6--6-6----6-6--6--6--6--|
G|--2--2--2--2-2----2-2--2--2--2--|--6--6--6--6-6----6-6--6--6--6--|
D|--0--0--0--0-0----0-0--0--0--0--|--4--4--4--4-4----4-4--4--4--4--|

d|--------------------------------|--------------------------------|
A|--2--2--2--2-2----2-2--2--2--2--|--4--4--4--4-4----4-4--4--4--4--|
F|--2--2--2--2-2----2-2--2--2--2--|--4--4--4--4-4----4-4--4--4--4--|
C|--2--2--2--2-2----2-2--2--2--2--|--4--4--4--4-4----4-4--4--4--4--|
G|--0--0--0--0-0----0-0--0--0--0--|--2--2--2--2-2----2-2--2--2--2--|
D|--------------------------------|--------------------------------|

d|--0--0--0--0-0----0-0--0--0--0--|--4--4--4--4-4----4-4--4--4--4--|
A|--0--0--0--0-0----0-0--0--0--0--|--4--4--4--4-4----4-4--4--4--4--|
F|--1--1--1--1-1----1-1--1--1--1--|--5--5--5--5-5----5-5--5--5--5--|
C|--2--2--2--2-2----2-2--2--2--2--|--6--6--6--6-6----6-6--6--6--6--|
G|--2--2--2--2-2----2-2--2--2--2--|--6--6--6--6-6----6-6--6--6--6--|
D|--0--0--0--0-0----0-0--0--0--0--|--4--4--4--4-4----4-4--4--4--4--|

d|--------------------------------|--------------------------------|
A|--2--2--2--2-2----2-2--2--2--2--|--4--4--4--4-4----4-4--4--4--4--|
F|--2--2--2--2-2----2-2--2--2--2--|--4--4--4--4-4----4-4--4--4--4--|
C|--2--2--2--2-2----2-2--2--2--2--|--4--4--4--4-4----4-4--4--4--4--|
G|--0--0--0--0-0----0-0--0--0--0--|--2--2--2--2-2----2-2--2--2--2--|
D|--------------------------------|--------------------------------|

d|--0--0--0--0-0----0-0--0--0--0--|--4--4--4--4-4----4-4--4--4--4--|
A|--0--0--0--0-0----0-0--0--0--0--|--4--4--4--4-4----4-4--4--4--4--|
F|--1--1--1--1-1----1-1--1--1--1--|--5--5--5--5-5----5-5--5--5--5--|
C|--2--2--2--2-2----2-2--2--2--2--|--6--6--6--6-6----6-6--6--6--6--|
G|--2--2--2--2-2----2-2--2--2--2--|--6--6--6--6-6----6-6--6--6--6--|
D|--0--0--0--0-0----0-0--0--0--0--|--4--4--4--4-4----4-4--4--4--4--|

d|--------------------------------|--------------------------------|
A|--2--2--2--2-2----2-2--2--2--2--|--4--4--4--4-4----4-4--4--4--4--|
F|--2--2--2--2-2----2-2--2--2--2--|--4--4--4--4-4----4-4--4--4--4--|
C|--2--2--2--2-2----2-2--2--2--2--|--4--4--4--4-4----4-4--4--4--4--|
G|--0--0--0--0-0----0-0--0--0--0--|--2--2--2--2-2----2-2--2--2--2--|
D|--------------------------------|--------------------------------|

d|--0--0--0--0-0----0-0--0--0--0--|--4--4--4--4-4----4-4--4--4--4--|
A|--0--0--0--0-0----0-0--0--0--0--|--4--4--4--4-4----4-4--4--4--4--|
F|--1--1--1--1-1----1-1--1--1--1--|--5--5--5--5-5----5-5--5--5--5--|
C|--2--2--2--2-2----2-2--2--2--2--|--6--6--6--6-6----6-6--6--6--6--|
G|--2--2--2--2-2----2-2--2--2--2--|--6--6--6--6-6----6-6--6--6--6--|
D|--0--0--0--0-0----0-0--0--0--0--|--4--4--4--4-4----4-4--4--4--4--|

d|--------------------------------|--------------------------------|
A|--2--2--2--2-2----2-2--2--2--2--|--4--4--4--4-4----4-4--4--4--4--|
F|--2--2--2--2-2----2-2--2--2--2--|--4--4--4--4-4----4-4--4--4--4--|
C|--2--2--2--2-2----2-2--2--2--2--|--4--4--4--4-4----4-4--4--4--4--|
G|--0--0--0--0-0----0-0--0--0--0--|--2--2--2--2-2----2-2--2--2--2--|
D|--------------------------------|--------------------------------|

d|--0--0--0--0-0----0-0--0--0--0--|--4--4--4--4-4----4-4--4--4--4--|
A|--0--0--0--0-0----0-0--0--0--0--|--4--4--4--4-4----4-4--4--4--4--|
F|--1--1--1--1-1----1-1--1--1--1--|--5--5--5--5-5----5-5--5--5--5--|
C|--2--2--2--2-2----2-2--2--2--2--|--6--6--6--6-6----6-6--6--6--6--|
G|--2--2--2--2-2----2-2--2--2--2--|--6--6--6--6-6----6-6--6--6--6--|
D|--0--0--0--0-0----0-0--0--0--0--|--4--4--4--4-4----4-4--4--4--4--|

d|--------------------------------|--------------------------------|
A|--2--2--2--2-2----2-2--2--2--2--|--4--4--4--4-4----4-4--4--4--4--|
F|--2--2--2--2-2----2-2--2--2--2--|--4--4--4--4-4----4-4--4--4--4--|
C|--2--2--2--2-2----2-2--2--2--2--|--4--4--4--4-4----4-4--4--4--4--|
G|--0--0--0--0-0----0-0--0--0--0--|--2--2--2--2-2----2-2--2--2--2--|
D|--------------------------------|--------------------------------|

d|--0--0--0--0-0----0-0--0--0--0--|--4--4--4--4-4----4-4--4--4--4--|
A|--0--0--0--0-0----0-0--0--0--0--|--4--4--4--4-4----4-4--4--4--4--|
F|--1--1--1--1-1----1-1--1--1--1--|--5--5--5--5-5----5-5--5--5--5--|
C|--2--2--2--2-2----2-2--2--2--2--|--6--6--6--6-6----6-6--6--6--6--|
G|--2--2--2--2-2----2-2--2--2--2--|--6--6--6--6-6----6-6--6--6--6--|
D|--0--0--0--0-0----0-0--0--0--0--|--4--4--4--4-4----4-4--4--4--4--|

d|--------------------------------|--------------------------------|
A|--2--2--2--2-2----2-2--2--2--2--|--4--4--4--4-4----4-4--4--4--4--|
F|--2--2--2--2-2----2-2--2--2--2--|--4--4--4--4-4----4-4--4--4--4--|
C|--2--2--2--2-2----2-2--2--2--2--|--4--4--4--4-4----4-4--4--4--4--|
G|--0--0--0--0-0----0-0--0--0--0--|--2--2--2--2-2----2-2--2--2--2--|
D|--------------------------------|--------------------------------|
comments
We did not receive enough feedback on this tab! Please rate:
print report bad tab
1 2 3 4 5
I want to post or [tab]
guest
You may want to rate the tab now too:
select rating
Please do not post tabs as comments. Select "correction" instead!