Oops, an error
Loading. Please wait.

Guren Tab

ver1
ver1

Whole song

Interactive

More versions @911Tabs.com
5,801 views 6 this week
1 commentread comment
1 2 3 4 5
excellent!
x 2
Autoscroll
+/-
esc
set tempo
stop
Difficulty
Tuning
intermediate
C G C F A D
Hey! There's an official Ultimate Guitar app which is ideal
for learning songs when you're away from computer. Get the app
WARNING: You are trying to view
                                    content from Ultimate-Guitar.com
                                    in an unauthorized application,
                                    which is prohibited.

                                    Please use an official Ultimate
                                    Guitar Tabs application for iPhone,
                                    iPad or Android to access legitimate
                                    chords, guitar, bass, and drum tabs
                                    from Ultimate-Guitar.com database.

                                    Type "ultimate guitar tabs" in Apple
                                    App Store's or Android Market's
                                    search to find the application.
-------------------------------------------------------------------------------
                             GUREN - The GazettE
-------------------------------------------------------------------------------
Tuning – Full Step Down-(DGCFAD) or Drop C-(CGCFAD)
INTRO
d|-----18~------------------------------------------------------------8-|
A|----------------------------------------------------------------------|
F|-------------------------------------20~---------------19~------------|
C|-------------------17~------------------------------------------------|
G|----------------------------------------------------------------------|
C|----------------------------------------------------------------------|

MAIN RIFF

d|--------------------------------------------------------------------------|
A|--------------------------------------------------------------------------|
F|---10-10-10-10-10-10-10-10-10\8-8-8-8-8-8-8-8/12-12-12-12-12-12-12-12/----|
C|--------------------------------------------------------------------------|
G|----8--8--8--8--8--8--8--8—-8\6-6-6-6-6-6-6-6/10-10-10-10-10-10-10-10/----|
C|--------------------------------------------------------------------------|

d|--------------------------------------------------------------------------|
A|--------------------------------------------------------------------------|
F|-15-15-15-15-15-15-15/17-17-17-17-17-17-17-17-19-19-19-19-20-20-19-19-19\-|
C|--------------------------------------------------------------------------|
G|-13-13-13-13-13-13-13/15-15-15-15-15-15-15-15-17-17-17-17-18-18-17-17-17\-|
C|--------------------------------------------------------------------------|

d|--------------------------------------------------------------------------|
A|--------------------------------------------------------------------------|
F|-12-12-12-12-12-12-12-12-12-12-12-7-7-8-8-10-10-10-10-10-10-10-10-10\8-8--|
C|--------------------------------------------------------------------------|
G|-10-10-10-10-10-10-10-10-10-10-10-5-5-6-6—-8-—8--8—-8—-8—-8—-8—-8—-8\6-6--|
C|--------------------------------------------------------------------------|

d|-----------------------------------------------------------------------------|
A|-----------------------------------------------------------------------------|
F|-8-8-8-8-8-8/12-12-12-12-12-12-12-12/15-15-15-15-15-15-15/17-17-17-17-17-17--|
C|-----------------------------------------------------------------------------|
G|-6-6-6-6-6-6/10-10-10-10-10-10-10-10/13-13-13-13-13-13-13/15—15—15—15-15-15--|
C|-----------------------------------------------------------------------------|

d|-----------------------|----------------------------------------|-------------------|
A|-----------------------|----------------------------------------|-------------------|
F|-7-7-7-7-7-7-8-8-8-8---|------------------8-------8-------------|-------------------|
C|-----------------------|-----------10---------------------------|-------------------|
G|-5-5-5-5-5-5-6-6-6-6---|-----10----------------10----------8-10-|-----6----6------8-|
C|-----------------------|-8-8----8-----8-8----8-------8-6-8------|-4-4---4----4-4----|
                           . .  . .   . . . .  .  . .  . . . . .    . . . .  . . .  .
d|---------------------------------------------------------|
A|---------------------------------------------------------|
F|-----------------------------------8-------8-------------|
C|-----8----------------------10---------------------------|
G|---6---6-----8-10------10---------------10----------8-10-|
C|-4-------6-8-------8-8----8----8-8----8-------8-6-8------|
   . . . . . . .  .  . .  . .  . . . .  .  . .  . . . .  .

VERSE

d|----------------------------------------------------------------------------------------------|
A|------------------------------------------------------------------------------4-----6-------8-|
F|---------------------------------------------------------------------------0-----0-------0----|
C|--------10---------------------------8------------------------10------------------------------|
G|--6\8----------8-----------6---------------6----------6/8----------8--------------------------|
C|----------------------------------------------------------------------------------------------|

d|----------------------------------------------------------------------------------|
A|----------------------------------------------------------------4-----6-------8---|
F|-------------------------------------------------------------0-----0-------0------|
C|---------10--------------8-------------------10-----------------------------------|
G|--6/8--------8------6---------6--------6/8--------8-------------------------------|
C|----------------------------------------------------------------------------------|

PRE-CHORUS

d|--4----3----3----4----3----1----3----4----3----3----------------------------------------------|
A|--4----3----4----4----3----3----4----4----3----4------4--4--4--4--3--3--3--3--4--4--4--4--4—4-|
F|--5----3----5----5----3----3----5----5----3----5------5--5--5--5--3--3--3--3--5--5--5--5--5-5-|
C|--6----5----5----6----5----3----5----6----5----5------6--6--6--6--5--5--5--5--5--5--5--5--5-5-|
G|------------3--------------1----3--------------3------6--6--6--6--5--5—-5--5--3--3--3—-3--3-3-|
C|----------------------------------------------------------------------------------------------|

CHORUS


d|-----------------------------------------------------------------------------------------|
A|--6-6-6-6-6-6-6-6-8-8-8-8-8-8-8-8--8--8--8--8--8--8--8--8--8--8--8--8--8--8--8—-8--------|
F|--8-8-8-8-8-8-8-8-8-8-8-8-8-8-8-8--8--8--8--8--8--8--8--8--8--8--8--8--8--8--8--8--------|
C|--6-6-6-6-6-6-6-6-8-8-8-8-8-8-8-8-10-10-10-10-10-10-10-10-10-10-10-10-10-10-10-10--------|
G|-----------------------------------------------------------------------------------------|
C|-----------------------------------------------------------------------------------------|

d|-----------------------------------------------------------------------------------------|
A|--6-6-6-6-6-6-6-6-8-8-8-8-6-6-6-6--8--8--8--8--8--8--8--8--8--8--8--8--8--8--8—-8--------|
F|--8-8-8-8-8-8-8-8-8-8-8-8-8-8-8-8--8--8--8--8--8--8--8--8--8--8--8--8--8--8--8--8--------|
C|--6-6-6-6-6-6-6-6-8-8-8-8-8-8-8-8-10-10-10-10-10-10-10-10-10-10-10-10-10-10-10-10--------|
G|-----------------------------------------------------------------------------------------|
C|-----------------------------------------------------------------------------------------|

d|-----------------------------------------------------------------------------------------|
A|--6-6-6-6-6-6-6-6-8-8-8-8-8-8-8-8--8--8--8--8--8--8--8--8--8--8--8--8--8--8--8—-8--------|
F|--8-8-8-8-8-8-8-8-8-8-8-8-8-8-8-8--8--8--8--8--8--8--8--8--8--8--8--8--8--8--8--8--------|
C|--6-6-6-6-6-6-6-6-8-8-8-8-8-8-8-8-10-10-10-10-10-10-10-10-10-10-10-10-10-10-10-10--------|
G|-----------------------------------------------------------------------------------------|
C|-----------------------------------------------------------------------------------------|

d|---------------------------------------|---------------|
A|--6-6-6-6-6-6-6-6-8-8-8-8-8-8-8-8------|----8----x--x--|
F|--8-8-8-8-8-8-8-8-8-8-8-8-8-8-8-8------|----8----x—-x--|
C|--6-6-6-6-6-6-6-6-8-8-8-8-8-8-8-8------|---10----x—-x--|
G|---------------------------------------|----8----x—-x--|
C|---------------------------------------|----8----------|

<-----PRE-CHORUS----->

<-------CHORUS------->

BREAK

d|--4--4--4--4--------------3--3--3--3--3--3--3--3--|
A|--4--4—-4—-4--8--8--6--6--4--4--4--4--4--4--4--4--|
F|--5--5--5—-5--8--8--8--8--5--5--5--5--5--5--5--5--| (x3)
C|--6--6--6—-6--8--8--8--8--5--5--5--5--5--5--5--5--|
G|--------------6--6--6--6--------------------------|
C|--------------------------------------------------|

d|--4--4--4--4----------------|
A|--4--4—-4—-4--8--8--8--8----|
F|--5--5--5—-5--8--8--8--8----|
C|--6--6--6—-6--8--8--8--8----|
G|--------------6--6--6--6----|
C|----------------------------|





INTERLUDE

d|------------------------------------------------------------------|
A|--1--1--1--1-1----1-1--1--1----3--3--3--3-3----3-3--3--3----------|
F|--1--1--1--1-1----1-1--1--1----3--3--3--3-3----3-3--3--3----------|
C|--3--3--3--3-3----3-3--3--3----3--3--3--3-3----3-3--3--3----------|
G|--3--3--3--3-3----3-3--3--3----5--5--5--5-5----5-5--5--5----------|
C|--1--1--1--1-1----1-1--1--1----3--3--3--3-3----3-3--3--3----------|

d|------------------------------------------------------------------|
A|--4--4--4--4-4----4-4--4--4----6--6--6--6-6----6-6--6--6----------|
F|--5--5--5--5-5----5-5--5--5----7--7--7--7-7----7-7--7--7----------|
C|--6--6--6--6-6----6-6--6--6----8--8--8--8-8----8-8--8--8----------|
G|--6--6--6--6-6----6-6--6--6----8--8--8--8-8----8-8--8--8----------|
C|--4--4--4--4-4----4-4--4--4----6--6--6--6-6----6-6--6--6----------|

d|------------------------------------------------------------------|
A|--1--1--1--1-1----1-1--1--1----3--3--3--3-3----3-3--3--3----------|
F|--1--1--1--1-1----1-1--1--1----3--3--3--3-3----3-3--3--3----------|
C|--3--3--3--3-3----3-3--3--3----3--3--3--3-3----3-3--3--3----------|
G|--3--3--3--3-3----3-3--3--3----5--5--5--5-5----5-5--5--5----------|
C|--1--1--1--1-1----1-1--1--1----3--3--3--3-3----3-3--3--3----------|

d|------------------------------------------------------------------|
A|--4--4--4--4-4----4-4--4--4----6--6--6--6-6----6-6--6--6----------|
F|--5--5--5--5-5----5-5--5--5----7--7--7--7-7----7-7--7--7----------|
C|--6--6--6--6-6----6-6--6--6----8--8--8--8-8----8-8--8--8----------|
G|--6--6--6--6-6----6-6--6--6----8--8--8--8-8----8-8--8--8----------|
C|--4--4--4--4-4----4-4--4--4----6--6--6--6-6----6-6--6--6----------|

SOLO

        ^^^^^^^^    ^^^^^^^^^^^^^^                   ^^^^        ^^^^
d|---------------------------------------------------------------------------|
A|---------------------------------------------------------------------------|
F|--/15-17----------12-------------------------------------------------------|
C|--------------/13-----------------------------------------------17---------|
G|--------------------------/13----15------/17-15-17-18----17--18------------|
C|---------------------------------------------------------------------------|

         ^^^^^^^^^^^^^^^^^                    ^^^^^^
d|-------------------------------------------------------------15------------|
A|--------------------------------20--18----------------/16-18---------------|
F|--/15--------/19----17----19------------20--17-(17)\-----------------------|
C|-------17------------------------------------------------------------------|
G|---------------------------------------------------------------------------|
C|---------------------------------------------------------------------------|

    ^^^^^^^                 ^^^^^^^^^^^^^^         ^^^^^^            ^^^^^^^^
d|--16----------15-16-15----18----18b-18br----20----20b------22hb--18-20-----|
A|-----------------------18--------------------------------------------------|
F|---------------------------------------------------------------------------|
C|---------------------------------------------------------------------------|
G|---------------------------------------------------------------------------|
C|---------------------------------------------------------------------------|

-----CHOURUS-----

OUTRO

d|--------------------------------------------------------------------------|
A|--------------------------------------------------------------------------|
F|---10-10-10-10-10-10-10-10-10\8-8-8-8-8-8-8-8/12-12-12-12-12-12-12-12/----|
C|--------------------------------------------------------------------------|
G|----8--8--8--8--8--8--8--8—-8\6-6-6-6-6-6-6-6/10-10-10-10-10-10-10-10/----|
C|--------------------------------------------------------------------------|


d|------------------------------------------------------------------------------------------|
A|------------------------------------------------------------------------------------------|
F|---15-15-15-15-15-15-15-17-17-17-17-17-17-17-17-19-19-19-19-20-20-19-19-19\12-12-12-12-12-|
C|------------------------------------------------------------------------------------------|
G|---13-13-13-13-13-13-13-15—15-15-15-15-15-15-15-17-17-17-17-18-18-17-17-17\10-10-10-10-10-|
C|------------------------------------------------------------------------------------------|

d|------------------------------------------------------------------------------------------|
A|------------------------------------------------------------------------------------------|
F|---12-12-12-12-12-12-7-7-8-8-10-10-10-10-10-10-10-10-10\8-8-8-8-8-8-8-8/12-12-12-12-12-12-|
C|------------------------------------------------------------------------------------------|
G|---10-10-10-10-10-10-5-5—6-6--8--8--8--8--8--8--8--8--8\6-6-6-6-6-6-6-6/10-10-10-10-10-10-|
C|------------------------------------------------------------------------------------------|

d|-------------------------------------------------------------------------------------------|
A|-------------------------------------------------------------------------------------------|
F|---12-12/15-15-15-15-15-15-15-17-17-17-17-17-17-17-17-7-7-7-7-8-8-8-8-15-15-15-15-15-15-15-|
C|-------------------------------------------------------------------------------------------|
G|---10-10/13-13-13-13-13—13-13-15-15-15-15-15-15-15-15-5-5-5-5-6-6-6-6-13-13-13-13-13-13-13-|
C|-------------------------------------------------------------------------------------------|

d|-------------------------------------------------------------------------------------------|
A|-------------------------------------------------------------------------------------------|
F|---12-12-12-12-7-7-8-8-10-10-10-10-10-10-10-10-10\8-8-8-8-8-8-8-8/12-12-12-12-12-12-12-12/-|
C|-------------------------------------------------------------------------------------------|
G|---10-10-10-10-5-5—6-6--8--8--8--8--8--8--8--8--8\6-6-6-6-6-6-6-6/10-10-10-10-10-10-10-10/-|
C|-------------------------------------------------------------------------------------------|

d|---------------------------------------------------------------------------------------------|
A|---------------------------------------------------------------------------------------------|
F|---15-15-15-15-15-15-15-17-17-17-17-17-17-17-17-19-19-19-19-20-20-19-19-19\12-12-12-12-12-12-|
C|---------------------------------------------------------------------------------------------|
G|---13-13-13-13-13-13-13-15-15-15-15-15-15-15-15-17-17-17-17-18-18-17-17-17\10-10-10-10-10-10-|
C|---------------------------------------------------------------------------------------------|

d|----------------------------------------------------------------------------------------------|
A|----------------------------------------------------------------------------------------------|
F|---12-12-12-12-12-7-7-8-8-10-10-10-10-10-10-10-10-10\8-8-8-8-8-8-8-8-12-12-12-12-12-12-12-12/-|
C|----------------------------------------------------------------------------------------------|
G|---10-10-10-10-10-5-5-6-6--8--8--8--8--8--8--8--8--8\6-6-6-6-6-6-6-6-10-10-10-10-10-10-10-10/-|
C|----------------------------------------------------------------------------------------------|

d|----------------------------------------------------------------------------------------------|
A|----------------------------------------------------------------------------------------------|
F|---15-15-15-15-15-15-15-17-17-17-17-17-17-17-17-17\15-15-15-15----7----7----------------------|
C|----------------------------------------------------------------------------------------------|
G|---13-13-13-13-13-13-13-15-15-15-15-15-15-15-15-15\13-13-13-13----5----5----------------------|
C|----------------------------------------------------------------------------------------------|



^^ - vibrato/tremolo
Fb - full bend
Br – bend release
Hb – half bend
 . – palm mute
 X – dead note
 / - slide up
 \ - slide down
comments
We did not receive enough feedback on this tab! Please rate:
print report bad tab
1 2 3 4 5
1 comment total.
0 reply
scottie_to_ho wrote on January 12 2014, 04:22 pm

Great tab! Thanks it sounds perfect.

I want to post or [tab]
guest
You may want to rate the tab now too:
select rating
Please do not post tabs as comments. Select "correction" instead!