Oops, an error
Loading. Please wait.

Last Bouquet Tab

595 views 1 this week
no commentswrite comment
1 2 3 4 5
please rate
Autoscroll
+/-
esc
set tempo
stop
Contributor
Tuning
D G C F A D
Hey! There's an official Ultimate Guitar app which is ideal
for learning songs when you're away from computer. Get the app
WARNING: You are trying to view
                                    content from Ultimate-Guitar.com
                                    in an unauthorized application,
                                    which is prohibited.

                                    Please use an official Ultimate
                                    Guitar Tabs application for iPhone,
                                    iPad or Android to access legitimate
                                    chords, guitar, bass, and drum tabs
                                    from Ultimate-Guitar.com database.

                                    Type "ultimate guitar tabs" in Apple
                                    App Store's or Android Market's
                                    search to find the application.
I would appreciate if someone could make a complete
Guitar-Pro file of this song. There are a lot of awesome GazettE songs that hasn't
been tabbed yet, so I've attached a request list at the bottom of this page with the 
name of the songs.
I figured this out by ear but can't figure out the whole guitar part, please subscribe 
to my YouTube channel if you like this tab! =)

SUBSCRIBE:
http://YOUTUBE.com/HozeTheJRocker

Q    E  S S S S S S S S S S    E  E  E  S E  S E  E  S S  
D||------------------------------|--2--2----------------------|
A||----------x-x-x-x-x-x-x-x-x-x-|--3--3--x--x-x--x-x--x--x-x-|
F||----------x-x-x-x-x-x-x-x-x-x-|--2--2--x--x-x--x-x--x--x-x-|
C||----------x-x-x-x-x-x-x-x-x-x-|--------x--x-x--x-x--x--x-x-|
G||------------------------------|----------------------------|
D||------------------------------|----------------------------|


  E  E  E  S E  S S S S S S S    E  E  E  S E  S E  E  S S  
--2--2------------------------|--2--2----------------------|
--3--3--x--x-x--x-x-x-x-x-x-x-|--3--3--x--x-x--x-x--x--x-x-|
--2--2--x--x-x--x-x-x-x-x-x-x-|--2--2--x--x-x--x-x--x--x-x-|
--------x--x-x--x-x-x-x-x-x-x-|--------x--x-x--x-x--x--x-x-|
------------------------------|----------------------------|
------------------------------|----------------------------|


  E  E  E  S E  S S S S S S S    E  E  E  S E  S E  E  S S  
--2--2------------------------|--2--2----------------------|
--3--3--x--x-x--x-x-x-x-x-x-x-|--3--3--x--x-x--x-x--x--x-x-|
--2--2--x--x-x--x-x-x-x-x-x-x-|--2--2--x--x-x--x-x--x--x-x-|
--------x--x-x--x-x-x-x-x-x-x-|--------x--x-x--x-x--x--x-x-|
------------------------------|----------------------------|
------------------------------|----------------------------|


  E  E  E  S E  S S S S S S S    E  E  E  S E  S E  E  S S  
--2--2------------------------|--2--2----------------------|
--3--3--x--x-x--x-x-x-x-x-x-x-|--3--3--x--x-x--x-x--x--x-x-|
--2--2--x--x-x--x-x-x-x-x-x-x-|--2--2--x--x-x--x-x--x--x-x-|
--------x--x-x--x-x-x-x-x-x-x-|--------x--x-x--x-x--x--x-x-|
------------------------------|----------------------------|
------------------------------|----------------------------|


  E  E  S S S E.  E  S S S    W                   W                 
--2--2--------2------------|-------------------|-------------------|
--3--3--x-x-x-3---x--x-x-x-|--7----------------|--L----------------|
--2--2--x-x-x-2---x--x-x-x-|--7----------------|--L----------------|
--------x-x-x-----x--x-x-x-|--7----------------|--L----------------|
---------------------------|--5----------------|--L----------------|
---------------------------|-------------------|-------------------|


  W                   H.            T  T  T  T  T T T T  
-------------------|------------------------------------|
--L----------------|--L---------------------------------|
--L----------------|--L---------------------------------|
--L----------------|--L------------14-13-12-11-10-(b9)8-7-|
--L----------------|---------------14-13-12-11-10-(b9)8-7-|
-------------------|---------------12-11-10--(b9)-8-7-6-5-|


  ^                 ^                                                 
  E  S S E.  E.  E  S E  S    Q     S  S  S  S  S S S S   S  S  S  S  
---------------------------|-----------------------------------------|
--5--6-5-----8---5--6-5----|-------10-10-10-10s-8-8-8-8s-13-13-13-13-|
--5------5----------5----7-|--L--------------------------------------|
--7----------------------8-|--L-----7--7--7--7s-5-5-5-5s-10-10-10-10-|
--------------------7------|-----------------------------------------|
---------------------------|-----------------------------------------|


  ^                 ^                   PM   PM   PM   PM    
  E  S S E.  E.  E  S E  S    Q.     E  S  S S  S S  S S  S  
---------------------------|--------------------------------|
--5--6-5-----8---5--6-5----|--------------------------------|
--5------5----------5----5-|--L------L--2----2----3----2----|
--7----------------------5-|--L------L--2----2----3----2----|
--------------------7------|------------0----0----1----0----|
---------------------------|--------------------------------|


  ^                 ^                                                 
  E  S S E.  E.  E  S E  S    Q     S  S  S  S  S S S S   S  S  S  S  
---------------------------|-----------------------------------------|
--5--6-5-----8---5--6-5----|-------10-10-10-10s-8-8-8-8s-13-13-13-13-|
--5------5----------5----7-|--L--------------------------------------|
--7----------------------8-|--L-----7--7--7--7s-5-5-5-5s-10-10-10-10-|
--------------------7------|-----------------------------------------|
---------------------------|-----------------------------------------|


  ^                 ^                                                
  E  S S E.  E.  E  S E  S    H        H           W                 
---------------------------|--------------------|-------------------|
--5--6-5-----8---5--6-5----|--------------------|--3----------------|
--5------5----------5----5-|--L--------2--------|--2----------------|
--7----------------------5-|--L--------2--------|--0----------------|
--------------------7------|-----------0--------|-------------------|
---------------------------|--------------------|-------------------|


  W                   E  E  E  S E  S E  E  S S    E  E  E  S E  S S S S S S S  
-------------------|--1--1----------------------|--1--1------------------------|
--L----------------|--3--3--x--x-x--x-x--x--x-x-|--3--3--x--x-x--x-x-x-x-x-x-x-|
--L----------------|--2--2--x--x-x--x-x--x--x-x-|--2--2--x--x-x--x-x-x-x-x-x-x-|
--L----------------|--------x--x-x--x-x--x--x-x-|--------x--x-x--x-x-x-x-x-x-x-|
-------------------|----------------------------|------------------------------|
-------------------|----------------------------|------------------------------|


  E  E  E  S E  S E  E  S S    E  E  E  S E  S S S S S S S  
--1--1----------------------|--1--1------------------------|
--3--3--x--x-x--x-x--x--x-x-|--3--3--x--x-x--x-x-x-x-x-x-x-|
--2--2--x--x-x--x-x--x--x-x-|--2--2--x--x-x--x-x-x-x-x-x-x-|
--------x--x-x--x-x--x--x-x-|--------x--x-x--x-x-x-x-x-x-x-|
----------------------------|------------------------------|
----------------------------|------------------------------|


  E  E  E  S E  S E  E  S S    E  E  E  S E  S S S S S S S  
--1--1----------------------|--1--1------------------------|
--3--3--x--x-x--x-x--x--x-x-|--3--3--x--x-x--x-x-x-x-x-x-x-|
--2--2--x--x-x--x-x--x--x-x-|--2--2--x--x-x--x-x-x-x-x-x-x-|
--------x--x-x--x-x--x--x-x-|--------x--x-x--x-x-x-x-x-x-x-|
----------------------------|------------------------------|
----------------------------|------------------------------|


  E  E  E  S E  S E  E  S S    E  E  E  S E.  E  S E   
--1--1----------------------|--1--1-------1---1-------|
--3--3--x--x-x--x-x--x--x-x-|--3--3--x--x-3---3--1-1--|
--2--2--x--x-x--x-x--x--x-x-|--2--2--x--x-2---2--2-2--|
--------x--x-x--x-x--x--x-x-|--------x--x--------2-2--|
----------------------------|-------------------------|
----------------------------|-------------------------|


  E.  E  E.  E.  E  S E     E.  E  E.  E.  E  S E     E.  E  E.  E.  E  S E   
--6----------6-----------|--8----------8-----------|--5----------5-----------|
---------6----------6----|---------5----------5----|---------6----------6----|
------7----------7----7--|------5----------5----5--|------5----------5----5--|
-------------------------|-------------------------|-------------------------|
-------------------------|-------------------------|-------------------------|
-------------------------|-------------------------|-------------------------|


  E.  E  E.  E.  E  S E     E.  E  E.  E.  E  S E     E.  E  E.  E.  E  S E   
--5----------5-----------|--6----------6-----------|--3----------3-----------|
---------5----------5----|---------6----------6----|---------5----------5----|
------6----------6----6--|------7----------7----7--|------5----------5----5--|
-------------------------|-------------------------|-------------------------|
-------------------------|-------------------------|-------------------------|
-------------------------|-------------------------|-------------------------|


                             ^                      
  E.  E  S E  E.  E  S E     H        Q    S S S S  
--5-----------5-----------|------------------------|
---------6-----------6----|--2--------3----L-5-L-L-|
------5----5------5----5--|--2--------3----L-5-L-L-|
--------------------------|--2--------3----L-5-L-L-|
--------------------------|--0--------1----L-3-L-L-|
--------------------------|------------------------|


   ^                           ^                           
   H         E  S S S S S S    Q.     S S S S S S S S S S  
--(1)--------3----3---3-3---|-------------0---0-0---0-0---|
---3---------5----5---5-5---|--1------L---2---2-2---2-2---|
---3---------5--x-5-x-5-5-x-|--2------L-x-2-x-2-2-x-2-2-x-|
---0------------x---x-----x-|--2------L-x---x-----x-----x-|
----------------x---x-----x-|-----------x---x-----x-----x-|
----------------------------|-----------------------------|


   ^                           ^                           
   H         E  S S S S S S    Q.     S S S S S S S S S S  
--(1)--------3----3---3-3---|-------------0---0-0---0-0---|
---3---------5----5---5-5---|--1------L---2---2-2---2-2---|
---3---------5--x-5-x-5-5-x-|--2------L-x-2-x-2-2-x-2-2-x-|
---0------------x---x-----x-|--2------L-x---x-----x-----x-|
----------------x---x-----x-|-----------x---x-----x-----x-|
----------------------------|-----------------------------|


   ^                           ^                           
   H         E  S S S S S S    Q.     S S S S S S S S S S  
--(1)--------3----3---3-3---|-------------0---0-0---0-0---|
---3---------5----5---5-5---|--1------L---2---2-2---2-2---|
---3---------5--x-5-x-5-5-x-|--2------L-x-2-x-2-2-x-2-2-x-|
---0------------x---x-----x-|--2------L-x---x-----x-----x-|
----------------x---x-----x-|-----------x---x-----x-----x-|
----------------------------|-----------------------------|


   ^          ^               ^                                
   H          Q.      S S     E.   E   S  E   S S S S S S S S  
--(1)--------(3)------L---|-----------------------------------|
---3----------5-------L-x-|--10----8---8--8---8-7-7-7-7-------|
---3----------5-------L-x-|--10---10--10-10--10-7-7-7-7-------|
---0----------2-------L-x-|---7----7---7--7---7-7-7-7-7-------|
--------------------------|-----------------------------------|
--------------------------|-----------------------------------|


  ^                 ^                                                 
  E  S S E.  E.  E  S E  S    Q     S  S  S  S  S S S S   S  S  S  S  
---------------------------|-----------------------------------------|
--5--6-5-----8---5--6-5----|-------10-10-10-10s-8-8-8-8s-13-13-13-13-|
--5------5----------5----7-|--L--------------------------------------|
--7----------------------8-|--L-----7--7--7--7s-5-5-5-5s-10-10-10-10-|
--------------------7------|-----------------------------------------|
---------------------------|-----------------------------------------|


  ^                 ^                   PM   PM   PM   PM    
  E  S S E.  E.  E  S E  S    Q.     E  S  S S  S S  S S  S  
---------------------------|--------------------------------|
--5--6-5-----8---5--6-5----|--------------------------------|
--5------5----------5----5-|--L------L--2----2----3----2----|
--7----------------------5-|--L------L--2----2----3----2----|
--------------------7------|------------0----0----1----0----|
---------------------------|--------------------------------|


  ^                 ^                                                 
  E  S S E.  E.  E  S E  S    Q     S  S  S  S  S S S S   S  S  S  S  
---------------------------|-----------------------------------------|
--5--6-5-----8---5--6-5----|-------10-10-10-10s-8-8-8-8s-13-13-13-13-|
--5------5----------5----7-|--L--------------------------------------|
--7----------------------8-|--L-----7--7--7--7s-5-5-5-5s-10-10-10-10-|
--------------------7------|-----------------------------------------|
---------------------------|-----------------------------------------|


  ^                 ^                                                         
  E  S S E.  E.  E  S E  S    H        H           E  E  E  S E  S E  E  S S  
---------------------------|--------------------|--1--1----------------------|
--5--6-5-----8---5--6-5----|--------------------|--3--3--x--x-x--x-x--x--x-x-|
--5------5----------5----5-|--L--------2--------|--2--2--x--x-x--x-x--x--x-x-|
--7----------------------5-|--L--------2--------|--------x--x-x--x-x--x--x-x-|
--------------------7------|-----------0--------|----------------------------|
---------------------------|--------------------|----------------------------|


  E  E  E  S E  S S S S S S S    E  E  E  S E  S E  E  S S  
--1--1------------------------|--1--1----------------------|
--3--3--x--x-x--x-x-x-x-x-x-x-|--3--3--x--x-x--x-x--x--x-x-|
--2--2--x--x-x--x-x-x-x-x-x-x-|--2--2--x--x-x--x-x--x--x-x-|
--------x--x-x--x-x-x-x-x-x-x-|--------x--x-x--x-x--x--x-x-|
------------------------------|----------------------------|
------------------------------|----------------------------|


  E  E  E  S E  S S S S S S S    E  E  E  S E  S E  E  S S  
--1--1------------------------|--1--1----------------------|
--3--3--x--x-x--x-x-x-x-x-x-x-|--3--3--x--x-x--x-x--x--x-x-|
--2--2--x--x-x--x-x-x-x-x-x-x-|--2--2--x--x-x--x-x--x--x-x-|
--------x--x-x--x-x-x-x-x-x-x-|--------x--x-x--x-x--x--x-x-|
------------------------------|----------------------------|
------------------------------|----------------------------|


  E  E  E  S E  S S S S S S S    E  E  E  S E  S E  E  S S  
--1--1------------------------|--1--1----------------------|
--3--3--x--x-x--x-x-x-x-x-x-x-|--3--3--x--x-x--x-x--x--x-x-|
--2--2--x--x-x--x-x-x-x-x-x-x-|--2--2--x--x-x--x-x--x--x-x-|
--------x--x-x--x-x-x-x-x-x-x-|--------x--x-x--x-x--x--x-x-|
------------------------------|----------------------------|
------------------------------|----------------------------|


  E  E  E  S E.  E  S E     E.  E  E.  E.  E  S E     E.  E  E.  E.  E  S E   
--1--1-------1---1-------|--6----------6-----------|--8----------8-----------|
--3--3--x--x-3---3--1-1--|---------6----------6----|---------5----------5----|
--2--2--x--x-2---2--2-2--|------7----------7----7--|------5----------5----5--|
--------x--x--------2-2--|-------------------------|-------------------------|
-------------------------|-------------------------|-------------------------|
-------------------------|-------------------------|-------------------------|


  E.  E  E.  E.  E  S E     E.  E  E.  E.  E  S E     E.  E  E.  E.  E  S E   
--5----------5-----------|--5----------5-----------|--6----------6-----------|
---------6----------6----|---------5----------5----|---------6----------6----|
------5----------5----5--|------6----------6----6--|------7----------7----7--|
-------------------------|-------------------------|-------------------------|
-------------------------|-------------------------|-------------------------|
-------------------------|-------------------------|-------------------------|


                                                       ^                      
  E.  E  E.  E.  E  S E     E.  E  S E  E.  E  S E     H        Q    S S S S  
--3----------3-----------|--5-----------5-----------|------------------------|
---------5----------5----|---------6-----------6----|--2--------3----L-5-L-L-|
------5----------5----5--|------5----5------5----5--|--2--------3----L-5-L-L-|
-------------------------|--------------------------|--2--------3----L-5-L-L-|
-------------------------|--------------------------|--0--------1----L-3-L-L-|
-------------------------|--------------------------|------------------------|


   ^                           ^                           
   H         E  S S S S S S    Q.     S S S S S S S S S S  
--(1)--------3----3---3-3---|-------------0---0-0---0-0---|
---3---------5----5---5-5---|--1------L---2---2-2---2-2---|
---3---------5--x-5-x-5-5-x-|--2------L-x-2-x-2-2-x-2-2-x-|
---0------------x---x-----x-|--2------L-x---x-----x-----x-|
----------------x---x-----x-|-----------x---x-----x-----x-|
----------------------------|-----------------------------|


   ^                           ^                           
   H         E  S S S S S S    Q.     S S S S S S S S S S  
--(1)--------3----3---3-3---|-------------0---0-0---0-0---|
---3---------5----5---5-5---|--1------L---2---2-2---2-2---|
---3---------5--x-5-x-5-5-x-|--2------L-x-2-x-2-2-x-2-2-x-|
---0------------x---x-----x-|--2------L-x---x-----x-----x-|
----------------x---x-----x-|-----------x---x-----x-----x-|
----------------------------|-----------------------------|


   ^                           ^                           
   H         E  S S S S S S    Q.     S S S S S S S S S S  
--(1)--------3----3---3-3---|-------------0---0-0---0-0---|
---3---------5----5---5-5---|--1------L---2---2-2---2-2---|
---3---------5--x-5-x-5-5-x-|--2------L-x-2-x-2-2-x-2-2-x-|
---0------------x---x-----x-|--2------L-x---x-----x-----x-|
----------------x---x-----x-|-----------x---x-----x-----x-|
----------------------------|-----------------------------|


   ^          ^               ^                                
   H          Q.      S S     E.   E   S  E   S S S S S S S S  
--(1)--------(3)------L---|-----------------------------------|
---3----------5-------L-x-|--10----8---8--8---8-7-7-7-7-------|
---3----------5-------L-x-|--10---10--10-10--10-7-7-7-7-------|
---0----------2-------L-x-|---7----7---7--7---7-7-7-7-7-------|
--------------------------|-----------------------------------|
--------------------------|-----------------------------------|


     Q.       E      Q      S     E.        Q.       E      Q      S E     S   
---/17~------17\---/15~----15\--/18----|---17~------17\-------------------12--|
--/(18)~-----18\--/(17)~---17\-/(20)---|--(18)~-----18\---/18~------18\--(14)-|
---------------------------------------|-----------------/(19)~-----19\-------|
---------------------------------------|--------------------------------------|
---------------------------------------|--------------------------------------|
---------------------------------------|--------------------------------------|


    Q.       E      E.    E      E.    
---13~-------13\----------------/18----|
--(15)~------15\--/14~---14\--/(20)---|
-----------------/(14)~--14\----------|
--------------------------------------|
--------------------------------------|
--------------------------------------|


    E.     E     E     E     E     E     E     S    
---17-----15----15----13----13----------------15S--|
--(18)---(17)--(17)--(15)--(15)---13----13---(17)S-|
---------------------------------(14)--(14)--------|
---------------------------------------------------|
---------------------------------------------------|
---------------------------------------------------|


     Q.       E      Q      S     E.        Q.       E      Q      S E     S   
---/17~-------L\---/15~-----L\--/18----|---17~-------L\-------------------12--|
--/(18)~------L\--/(17)~----L\-/(20)---|--(18)~------L\---/18~-----L-L\--(14)-|
---------------------------------------|-----------------/(19)~----L-L\-------|
---------------------------------------|--------------------------------------|
---------------------------------------|--------------------------------------|
---------------------------------------|--------------------------------------|


    Q.       E      E.     E      E.        W                   
---13~-------L\-----------------/17----|-----------------------|
--(15)~------L\---/14~-----L\--/(18)---|-----------------------|
-----------------/(14)~----L\----------|---19~-----------------|
---------------------------------------|--(19)~----------------|
---------------------------------------|-----------------------|
---------------------------------------|-----------------------|


  E  S E  E.  Q    S E.     E  S E  E.  E.  E  S E     E  S E  E.  Q    S E.   
-------------------------|--------------------------|-------------------------|
--3--3-3--3---2----L-5---|--6--6-6--6---------------|--3--3-3--3---2----L-5---|
--3--3-3--3---2----L-6---|--7--7-7--7---2---2--2-2--|--3--3-3--3---2----L-6---|
--3--3-3--3---2----L-7---|--7--7-7--7---3---3--3-3--|--3--3-3--3---2----L-7---|
--1--1-1--1---0----L-4---|--5--5-5--5---3---3--3-3--|--1--1-1--1---0----L-4---|
-------------------------|--------------1---1--1-1--|-------------------------|


  E.  E  E  E   E   E   E   S    E  S E  E.  Q    S E.   
------------------------------|-------------------------|
------------------------------|--3--3-3--3---2----L-5---|
--7---7--(b9)-(b9)-10--10--12--12-|--3--3-3--3---2----L-6---|
--7---7--6--6--10--10---(b9)--(b9)|--3--3-3--3---2----L-7---|
--5---5--7--7---8---8--10--10-|--1--1-1--1---0----L-4---|
------------------------------|-------------------------|


  E  S E  E.  E.  E  S E     E  S E  E.  Q    S E.   
--------------------------|-------------------------|
--6--6-6--6---------------|--3--3-3--3---2----L-5---|
--7--7-7--7---2---2--2-2--|--3--3-3--3---2----L-6---|
--7--7-7--7---3---3--3-3--|--3--3-3--3---2----L-7---|
--5--5-5--5---3---3--3-3--|--1--1-1--1---0----L-4---|
--------------1---1--1-1--|-------------------------|


  E.  E  E  E   E   E   E   S    E  S E  E.  Q    S E.   
------------------------------|-------------------------|
------------------------------|--3--3-3--3---2----L-5---|
--7---7--(b9)-(b9)-10--10--12--12-|--3--3-3--3---2----L-6---|
--7---7--6--6--10--10---(b9)--(b9)|--3--3-3--3---2----L-7---|
--5---5--7--7---8---8--10--10-|--1--1-1--1---0----L-4---|
------------------------------|-------------------------|


  E  S E  E.  E.  E  S E     E  S E  E.  Q    S E.   
--------------------------|-------------------------|
--6--6-6--6---------------|--3--3-3--3---2----L-5---|
--7--7-7--7---2---2--2-2--|--3--3-3--3---2----L-6---|
--7--7-7--7---3---3--3-3--|--3--3-3--3---2----L-7---|
--5--5-5--5---3---3--3-3--|--1--1-1--1---0----L-4---|
--------------1---1--1-1--|-------------------------|


  E.  E  E  E   E   E   E   S    E  S E  E.  Q    S E.   
------------------------------|-------------------------|
------------------------------|--3--3-3--3---2----L-5---|
--7---7--(b9)-(b9)-10--10--12--12-|--3--3-3--3---2----L-6---|
--7---7--6--6--10--10---(b9)--(b9)|--3--3-3--3---2----L-7---|
--5---5--7--7---8---8--10--10-|--1--1-1--1---0----L-4---|
------------------------------|-------------------------|


  E  S E  E.  E.  E  S E     E  S E  E.  Q    S E.   
--------------------------|-------------------------|
--6--6-6--6---------------|--3--3-3--3---2----L-5---|
--7--7-7--7---2---2--2-2--|--3--3-3--3---2----L-6---|
--7--7-7--7---3---3--3-3--|--3--3-3--3---2----L-7---|
--5--5-5--5---3---3--3-3--|--1--1-1--1---0----L-4---|
--------------1---1--1-1--|-------------------------|


                      tr                                W          
  |--3-|  |--3--|  |-3|                                            
  Q    E  E  E  E  E  Q       S S S S    E  S S E  S S  H          
----------0--1--1--3--5(6)----L-----5-|--6--5-6-8--6-8-10~--------|
-------3------------------------5-6---|---------------------------|
--------------------------------------|---------------------------|
--------------------------------------|---------------------------|
--------------------------------------|---------------------------|
--------------------------------------|---------------------------|


                               ^ ^   ^             ^            
  E   E   E   E   H            T T   H          S  E.    S  E   
--L--10--12--13--14b--------|--x-x--15b~--------L-15b~---L-13--|
----------------------------|--x-x-(18)------------------------|
----------------------------|----------------------------------|
----------------------------|----------------------------------|
----------------------------|----------------------------------|
----------------------------|----------------------------------|


   E   E   E   E   E    E  E   E       Q     E  Q     E    E    E   
--12--13--12-----------------------|-------------------------------|
--------------13~--L\--------------|---------------------/17s--13--|
-----------------------10--(b9)-10s--|--17----10--(b9)---10------------|
-----------------------------------|-------------------------------|
-----------------------------------|-------------------------------|
-----------------------------------|-------------------------------|


   Q.       E  E   E    Q         Q      E   E   S  S   E  E   S S  
----------------------/15~----|------------------------------------|
--13~-------------------------|--13~----11--10--10-11s-10--L-------|
-----------10--(b9)-10----------|-------------------------------10-(b9)|
------------------------------|------------------------------------|
------------------------------|------------------------------------|
------------------------------|------------------------------------|


  S  S E  E   S S S S E  Q      
-------------------------------|
-------------------------------|
--(b9)10-(b9)-L--------------------|
-------------10-8-7-8-7--------|
-------------------------8~----|
-------------------------------|


   |---3---|   |---3---|    |----3---|   |---3---|   
   E   E   E   E   E   E    E    E   E   E   E   E   
----------------------------------------------------|
----------------------------------------------------|
----------------------------------------------------|
----------------------------------------------------|
--------------10--12--13s--15s--13--12--10------12--|
--10--12--13--------------------------------13------|


   |---3---|   |---3---|   |---3---|    3        
   E   E   E   E   E   E   E   E   E    Q.       
------------------------------------------------|
------------------------------------------------|
----------------------------------12S--14~------|
----------12--12--14--15--14--15----------------|
--13--15----------------------------------------|
------------------------------------------------|


   |---3---|                                  
   E   E   E   Q      S  S  S  S  S  S  S  S  
---------------------------------------------|
------------------------------------------13-|
----------12--12b~----L----------12-14-15----|
--12--15----------------15-12-15-------------|
---------------------------------------------|
---------------------------------------------|


   S  S  S  S  S  S  S  S  S  S  S  S  S  S  S  S   
-----------------------------12-13-12-13-15-13-15s-|
-----------------------13-15-----------------------|
--15-14-12----12-14-15-----------------------------|
-----------15--------------------------------------|
---------------------------------------------------|
---------------------------------------------------|


   Q      E   Q     E    E    E      Q.      E   E   Q.      
--17~----------------------------|--------------------------|
-----------------------/17s--13--|--13----------------------|
---------17--14------------------|--------------------------|
-------------------15------------|----------15--14--15------|
---------------------------------|--------------------------|
---------------------------------|--------------------------|


    Q      E   Q     E    Q         E   Q     E   E   S  S  E   E   
--/20~------------------/20~----|----------------15----------------|
----------18--17----18----------|--18--17----18------17-18-17------|
--------------------------------|------------------------------17--|
--------------------------------|----------------------------------|
--------------------------------|----------------------------------|
--------------------------------|----------------------------------|


                      SH                                             
    Q.      Q.        Q        W                   W                 
----------------------------|-------------------|-------------------|
-------------------15~----|--L----------------|--L----------------|
----------------------------|-------------------|-------------------|
--/14------15---------------|-------------------|-------------------|
----------------------------|-------------------|-------------------|
----------------------------|-------------------|-------------------|


  W                                                                             
-------------------|-------------------|-------------------|-------------------|
--L----------------|-------------------|-------------------|-------------------|
-------------------|-------------------|-------------------|-------------------|
-------------------|-------------------|-------------------|-------------------|
-------------------|-------------------|-------------------|-------------------|
-------------------|-------------------|-------------------|-------------------|


                       ^                            ^                           
                       H         E  S S S S S S     Q.     S S S S S S S S S S  
-------------------|--(1)-----------------------|--------------0---0-0---0-0---|
-------------------|---3---------5----5---5-5---|--10------L---2---2-2---2-2---|
-------------------|---3---------5--x-5-x-5-5-x-|--10------L-x-2-x-2-2-x-2-2-x-|
-------------------|---0---------2--x-2-x-2-2-x-|---7------L-x-2-x-2-2-x-2-2-x-|
-------------------|----------------x---x-----x-|------------x---x-----x-----x-|
-------------------|----------------------------|------------------------------|


   ^                            ^                           
   H         E  S S S S S S     Q.     S S S S S S S S S S  
--(1)-----------------------|--------------0---0-0---0-0---|
---3---------5----5---5-5---|--10------L---2---2-2---2-2---|
---3---------5--x-5-x-5-5-x-|--10------L-x-2-x-2-2-x-2-2-x-|
---0---------2--x-2-x-2-2-x-|---7------L-x-2-x-2-2-x-2-2-x-|
----------------x---x-----x-|------------x---x-----x-----x-|
----------------------------|------------------------------|


   ^                            ^                           
   H         E  S S S S S S     Q.     S S S S S S S S S S  
--(1)-----------------------|--------------0---0-0---0-0---|
---3---------5----5---5-5---|--10------L---2---2-2---2-2---|
---3---------5--x-5-x-5-5-x-|--10------L-x-2-x-2-2-x-2-2-x-|
---0---------2--x-2-x-2-2-x-|---7------L-x-2-x-2-2-x-2-2-x-|
----------------x---x-----x-|------------x---x-----x-----x-|
----------------------------|------------------------------|


   ^          ^             ^                                
   H          H             E.   E   S  E   S S S S S S S S  
--(1)--------(3)--------|-----------------------------------|
---3----------5---------|--10----8---8--8---8-7-7-7-7-------|
---3----------5---------|--10---10--10-10--10-7-7-7-7-------|
---0----------2---------|---7----7---7--7---7-7-7-7-7-------|
------------------------|-----------------------------------|
------------------------|-----------------------------------|


  Q    Q    Q    Q                                             
----------------------|-------------------|-------------------|
----------------------|-------------------|-------------------|
----------------------|-------------------|-------------------|
----------------------|-------------------|-------------------|
----------------------|-------------------|-------------------|
----------------------|-------------------|-------------------|


-------------------|-------------------|-------------------|-------------------|
-------------------|-------------------|-------------------|-------------------|
-------------------|-------------------|-------------------|-------------------|
-------------------|-------------------|-------------------|-------------------|
-------------------|-------------------|-------------------|-------------------|
-------------------|-------------------|-------------------|-------------------|


                        E.   E   E   S E.  E  E  S  
-------------------|--/10-------10-----(b9)-----(b9)---|
-------------------|--------10------10-----8-----8-|
-------------------|-------------------------------|
-------------------|-------------------------------|
-------------------|-------------------------------|
-------------------|-------------------------------|


   E.   E   E   S  E.   E   E   S     E.   E   E   S  E  E  Q     
--12-------12-----12--------------|--13-------13-----12----------|
-------10------10------11--13-----|--11---11------11-------------|
-------------------------------10-|------------------------------|
----------------------------------|------------------------------|
----------------------------------|------------------------------|
----------------------------------|------------------------------|


  S S S S  S S S   S  S  S   S  S  S   S  S S                      
----------------------------------------------|-------------------|
----------------------------------------------|-------------------|
----7-7-7S-(b9)(b9)9S-10-10-10S-12-12-12S-10S-(b9)--|-------------------|
----------------------------------------------|-------------------|
----5-5-5S-7-7-7S--8--8--8S-10-10-10S--8S-7---|-------------------|
----------------------------------------------|-------------------|


-------------------|-------------------|-------------------|-------------------|
-------------------|-------------------|-------------------|-------------------|
-------------------|-------------------|-------------------|-------------------|
-------------------|-------------------|-------------------|-------------------|
-------------------|-------------------|-------------------|-------------------|
-------------------|-------------------|-------------------|-------------------|


-------------------|-------------------|-------------------|-------------------|
-------------------|-------------------|-------------------|-------------------|
-------------------|-------------------|-------------------|-------------------|
-------------------|-------------------|-------------------|-------------------|
-------------------|-------------------|-------------------|-------------------|
-------------------|-------------------|-------------------|-------------------|


-------------------|-------------------|-------------------|-------------------|
-------------------|-------------------|-------------------|-------------------|
-------------------|-------------------|-------------------|-------------------|
-------------------|-------------------|-------------------|-------------------|
-------------------|-------------------|-------------------|-------------------|
-------------------|-------------------|-------------------|-------------------|


-------------------|-------------------|-------------------|-------------------|
-------------------|-------------------|-------------------|-------------------|
-------------------|-------------------|-------------------|-------------------|
-------------------|-------------------|-------------------|-------------------|
-------------------|-------------------|-------------------|-------------------|
-------------------|-------------------|-------------------|-------------------|


-------------------|-------------------|-------------------|-------------------|
-------------------|-------------------|-------------------|-------------------|
-------------------|-------------------|-------------------|-------------------|
-------------------|-------------------|-------------------|-------------------|
-------------------|-------------------|-------------------|-------------------|
-------------------|-------------------|-------------------|-------------------|


  Q    Q    Q    Q          Q.       E      Q      S     E.    
----------------------|---/19~-------L\---/17~-----L\--/20----|
----------------------|--/(20)~------L\--/(19)~----L\-/(22)---|
----------------------|---------------------------------------|
----------------------|---------------------------------------|
----------------------|---------------------------------------|
----------------------|---------------------------------------|


    Q.       E      Q      S E     S       Q.       E      E.    E     E.    
---19~-------L\------------L------14--|---15~-------L\-----------L\---20----|
--(20)~------L\---/20~-------L\--(15)-|--(17)~------L\---/13~--------(22)---|
-----------------/(21)~----L-L\-------|-----------------/(14)~---L\---------|
--------------------------------------|-------------------------------------|
--------------------------------------|-------------------------------------|
--------------------------------------|-------------------------------------|


    E.     E     E     E     E     E     E     S    
---1(b9)----17----17----15----15----------------17S--|
--(20)---(19)--(19)--(17)--(17)---15----15---(19)S-|
---------------------------------(14)--(14)--------|
---------------------------------------------------|
---------------------------------------------------|
---------------------------------------------------|


     Q.       E      Q      S     E.        Q.       E      Q      S E     S   
---/19~-------L\---/17~-----L\--/20----|---19~-------L\------------L------14--|
--/(20)~------L\--/(19)~----L\-/(22)---|--(20)~------L\---/20~-------L\--(15)-|
---------------------------------------|-----------------/(21)~----L-L\-------|
---------------------------------------|--------------------------------------|
---------------------------------------|--------------------------------------|
---------------------------------------|--------------------------------------|


    Q.       E      E.    E      E.        H          E   S   E     E     S   
---15~-------L\-----------L\---/1(b9)---|---------------L\---------------------|
--(17)~------L\---/13~--------/(20)---|----------------------------20----22--|
-----------------/(14)~---L\----------|---21~----------------21---(21)--(23)-|
--------------------------------------|--(21)~--------L\----(21)-------------|
--------------------------------------|--------------------------------------|
--------------------------------------|--------------------------------------|


     Q.       E      Q      S     E.        Q.       E      Q      S  E     S   
---/19~-------L\---/17~-----L\--/20----|---19~-------L\------------L-------14--|
--/(20)~------L\--/(19)~----L\-/(22)---|--(20)~------L\---/20~--------L\--(15)-|
---------------------------------------|-----------------/(21)~----L--L\-------|
---------------------------------------|---------------------------------------|
---------------------------------------|---------------------------------------|
---------------------------------------|---------------------------------------|


    Q.       E      E.    E     E.    
---15~-------L\-----------L\---20----|
--(17)~------L\---/13~--------(22)---|
-----------------/(14)~---L\---------|
-------------------------------------|
-------------------------------------|
-------------------------------------|


    E.     E     E     E     E     E     E     S    
---1(b9)----17----17----15----15----------------17S--|
--(20)---(19)--(19)--(17)--(17)---15----15---(19)S-|
---------------------------------(14)--(14)--------|
---------------------------------------------------|
---------------------------------------------------|
---------------------------------------------------|


     Q.       E      Q      S     E.        Q.       E      Q      S E     S   
---/19~-------L\---/17~-----L\--/20----|---19~-------L\------------L------14--|
--/(20)~------L\--/(19)~----L\-/(22)---|--(20)~------L\---/20~-------L\--(15)-|
---------------------------------------|-----------------/(21)~----L-L\-------|
---------------------------------------|--------------------------------------|
---------------------------------------|--------------------------------------|
---------------------------------------|--------------------------------------|


    Q.       E      E.    E      E.        H          E   S   E     E     S   
---15~-------L\-----------L\---/1(b9)---|---------------L\---------------------|
--(17)~------L\---/13~--------/(20)---|----------------------------20----22--|
-----------------/(14)~---L\----------|---21~----------------21---(21)--(23)-|
--------------------------------------|--(21)~--------L\----(21)-------------|
--------------------------------------|--------------------------------------|
--------------------------------------|--------------------------------------|


     Q.       E      Q      S     E.        Q.       E      Q      S E     S   
---/19~-------L\---/17~-----L\--/20----|---19~-------L\------------L------14--|
--/(20)~------L\--/(19)~----L\-/(22)---|--(20)~------L\---/20~-------L\--(15)-|
---------------------------------------|-----------------/(21)~----L-L\-------|
---------------------------------------|--------------------------------------|
---------------------------------------|--------------------------------------|
---------------------------------------|--------------------------------------|


    Q.       E      E.    E     E.    
---15~-------L\-----------L\---20----|
--(17)~------L\---/13~--------(22)---|
-----------------/(14)~---L\---------|
-------------------------------------|
-------------------------------------|
-------------------------------------|


    E.     E     E     E     E     E     E     S    
---1(b9)----17----17----15----15----------------17S--|
--(20)---(19)--(19)--(17)--(17)---15----15---(19)S-|
---------------------------------(14)--(14)--------|
---------------------------------------------------|
---------------------------------------------------|
---------------------------------------------------|


     Q.       E      Q      S     E.        Q.       E      Q      S E     S   
---/19~-------L\---/17~-----L\--/20----|---19~-------L\------------L------14--|
--/(20)~------L\--/(19)~----L\-/(22)---|--(20)~------L\---/20~-------L\--(15)-|
---------------------------------------|-----------------/(21)~----L-L\-------|
---------------------------------------|--------------------------------------|
---------------------------------------|--------------------------------------|
---------------------------------------|--------------------------------------|


    Q.       E      E.    E      E.        H          E   S   E     E     S   
---15~-------L\-----------L\---/1(b9)---|---------------L\---------------------|
--(17)~------L\---/13~--------/(20)---|----------------------------20----22--|
-----------------/(14)~---L\----------|---21~----------------21---(21)--(23)-|
--------------------------------------|--(21)~--------L\----(21)-------------|
--------------------------------------|--------------------------------------|
--------------------------------------|--------------------------------------|


     Q.       E      Q      S     E.        Q.       E      Q      S E     S   
---/19~-------L\---/17~-----L\--/20----|---19~-------L\------------L------14--|
--/(20)~------L\--/(19)~----L\-/(22)---|--(20)~------L\---/20~-------L\--(15)-|
---------------------------------------|-----------------/(21)~----L-L\-------|
---------------------------------------|--------------------------------------|
---------------------------------------|--------------------------------------|
---------------------------------------|--------------------------------------|


    Q.       E      E.    E     E.    
---15~-------L\-----------L\---20----|
--(17)~------L\---/13~--------(22)---|
-----------------/(14)~---L\---------|
-------------------------------------|
-------------------------------------|
-------------------------------------|


    E.     E     E     E     E     E     E     S    
---1(b9)----17----17----15----15----------------17S--|
--(20)---(19)--(19)--(17)--(17)---15----15---(19)S-|
---------------------------------(14)--(14)--------|
---------------------------------------------------|
---------------------------------------------------|
---------------------------------------------------|


     Q.       E      Q      S     E.        Q.       E      Q      S E     S   
---/19~-------L\---/17~-----L\--/20----|---19~-------L\------------L------14--|
--/(20)~------L\--/(19)~----L\-/(22)---|--(20)~------L\---/20~-------L\--(15)-|
---------------------------------------|-----------------/(21)~----L-L\-------|
---------------------------------------|--------------------------------------|
---------------------------------------|--------------------------------------|
---------------------------------------|--------------------------------------|


    Q.       E      E.    E      E.        H          E   S   E     E     S    
---15~-------L\-----------L\---/1(b9)---|---------------L\---------------------||
--(17)~------L\---/13~--------/(20)---|----------------------------20----22--||
-----------------/(14)~---L\----------|---21~----------------21---(21)--(23)-||
--------------------------------------|--(21)~--------L\----(21)-------------||
--------------------------------------|--------------------------------------||
--------------------------------------|--------------------------------------||

Notes:

Spred the Gazerock!
Here are popular gazerock songs that hasn't been tabbed yet:

* Juunana Sai (Key of D minor)
* Katherine in the trunk (Key of G#minor)
* Anata no tame ni kono inochi (Only bass tabs are available...)
* Shiikureta haru, kawarenu haru
* Machibouke No Kouen De...
* Doro Darake no Seishun
* [DIS]
* Sentimental ni onigokko
* Kantou Dogeza Kumiai
* Okuribi

New Songs:

* Sugar Pain
* An unbearable act
* The murderous intent
* Hesitating means death
* Vortex
* Unceratin Sense

Please tab these songs if you are able to, and don't forget to subscribe! :)

SUBSCRIBE:
http://YOUTUBE.com/HozeTheJRocker
comments
We did not receive enough feedback on this tab! Please rate:
print report bad tab
1 2 3 4 5
I want to post or [tab]
guest
You may want to rate the tab now too:
select rating
Please do not post tabs as comments. Select "correction" instead!