Oops, an error
Loading. Please wait.

London Tab

by Gene
1,616 views 1 this week
no commentswrite comment
1 2 3 4 5
please rate
Autoscroll
+/-
esc
set tempo
stop
Hey! There's an official Ultimate Guitar app which is ideal
for learning songs when you're away from computer. Get the app
WARNING: You are trying to view
                                    content from Ultimate-Guitar.com
                                    in an unauthorized application,
                                    which is prohibited.

                                    Please use an official Ultimate
                                    Guitar Tabs application for iPhone,
                                    iPad or Android to access legitimate
                                    chords, guitar, bass, and drum tabs
                                    from Ultimate-Guitar.com database.

                                    Type "ultimate guitar tabs" in Apple
                                    App Store's or Android Market's
                                    search to find the application.
#----------------------------------PLEASE NOTE---------------------------------#
#This file is the author's own work and represents their interpretation of the #
#song. You may only use this file for private study, scholarship, or research. #
#------------------------------------------------------------------------------##
#

From: "Tim Fidler (Afid" 
Date: Fri, 05 Apr 1996 20:45:52 GMT


Band: Gene
Song: London, Can You Wait?
Album: From the first and second albums, "Olympian" and "To See The Lights".

Intro is lead guitar.

T --------------------------------------------------------------|
  ----------------5-----------------5---------------5-3-2-0-2-0-|
A ------2-2/4-2-6-----------2-2/4-6-----------2-2/4-------------|
  --2-4-------------2---2-4-----------2---2-4-------------------|
B --------------------------------------------------------------|
  --------------------------------------------------------------|

  ----------------------------------------------------------5-5-------0-|
T ----------------5-------------------5-----------------5-3-6---6-----0-|
  --------2-2/4-6-------------2-2/4-6-------------2-2/4-----7-----7---1-|
A --4-2-4-----------2---2-4-------------2---2-4-------------7-------7-2-|
  ----------------------------------------------------------5---------2-|
B ----------------------------------------------------------5---------0-|

NB. This lead intro does not appear on the "To See The Lights" album.


               A
My kith and kin
             A
I have sinned
  D
I didn't hear the siren, or see them giving in
            A
My kith and kin
       A        Bm
I have sinned, again
   C#m
He said
C#m             D
"London can you wait
                             C#m
For all the things I have to say
               D     E
London can you wait?"


               A
My kith and kin
             A
I have sinned
    D
The alarm rang loud, the lights were on
      D
And I didn't see a thing
               A
My kith and kin
                       Bm
Death just walked in, again
   C#m
He said
C#m             D
"London can you wait
                             C#m
For all the things I need to say
                 D     E
How long can you wait?"


D                E          A
I was having the time of my life.
                        D
So, why did you have to die?
    E
I'm lost
 A
Again.
(REPEAT ABOVE)

(Next section all broken chords)

D
Im lost again
   E
Im lost again
A
I am lost again
   D
Im lost again
   E
Im lost again
A
I am lost again

Outro

      D            D(on 4th)  Twiddely bit   D              C#m(on 5th)   F

T --------2-------------4-------------------------2---------------5-------5-|
  ------3---3---3-----5---5---5-5-5-7-5-2-------3---3---3-------6---6-----7-|
A ----2-------2-----4-------4---4-4-6-4-2-----2-------2-------7-------7---7-|
  --0-------------0-------------------------0---------------7-----------7-6-|
B ----------------------------------------0---------------5---------------5-|
 ------------------------------------------------------------------------5--|

This outro, although on the right lines is not exactly correct to how it
should be played. The TAB above is just the chords used, broken up.
Despite this it is correct and works quite well....


I hope you know what Im talking about.
Anyway, lets hear someone elses attempts at some GENE TAB. I cant do all the
work you know... BTW, Ive never seen any before and the brilliant band we
all know and love deserve it (or something (?)). So, come on Gene fans, lets
see it...

N.B. This very rough guide to London... should be played so it sounds right
to you. Most of the chords, as you will find out, are broken but you can
just strum through for a sing song. So,...erm.....enjoy, and stuff!

__________

Tim Fidler....Tim@recogexp.demon.co.uk (Please mail me)
__________
comments
We did not receive enough feedback on this tab! Please rate:
print report bad tab
1 2 3 4 5
I want to post or [tab]
guest
You may want to rate the tab now too:
select rating
Please do not post tabs as comments. Select "correction" instead!