Oops, an error
Loading. Please wait.

Sweet Rain Tab

1,053 views 6 this week
no commentswrite comment
1 2 3 4 5
please rate
add to favorites launch autoscroll
font size
0
reset
Autoscroll
+/-
esc
set tempo
stop
Contributor
Difficulty
novice
WARNING: You are trying to view
                                    content from Ultimate-Guitar.com
                                    in an unauthorized application,
                                    which is prohibited.

                                    Please use an official Ultimate
                                    Guitar Tabs application for iPhone,
                                    iPad or Android to access legitimate
                                    chords, guitar, bass, and drum tabs
                                    from Ultimate-Guitar.com database.

                                    Type "ultimate guitar tabs" in Apple
                                    App Store's or Android Market's
                                    search to find the application.
Gene Loves Jezebel - Sweet Rain


Intro

e|--------------------------------------------------|
B|---------------6h5--6h5---------------------------|
G|------5--7---------------7------------------------|
D|----7---------------------------------------------|
A|--------------------------------------------------|
E|--------------------------------------------------|

e|------------------8h7----8------------------------|
B|----------------------10---10---------------------|
G|------5--7----------------------------------------|
D|----7---------------------------------------------|
A|--------------------------------------------------|
E|--------------------------------------------------|

e|--------------------------------------------------|
B|---------------6h5--6h5---------------------------|
G|------5--7---------------7------------------------|
D|----7---------------------------------------------|
A|--------------------------------------------------|
E|--------------------------------------------------|

e|------------------8h7----8--------------------------5--------------|
B|----------------------10---10-----------------6-----5-6------------|
G|------5--7------------------------5-5h7---5-7-----------8-8h7------|
D|----7--------------------------------------------------------------|
A|-------------------------------------------------------------------|
E|-------------------------------------------------------------------|

e|--------------------------------------------|
B|---6-6-5h6-----5---5---5--------------------|
G|-----------------7---7---7------------------|
D|--------------------------------------------|
A|--------------------------------------------|
E|--------------------------------------------|

	Riff 1

e|----------8-8-8-8h7h5-5---------------8-8-8-8h7h5-5----------------|
B|----------8-8-8-8-8h6-6---------------8-8-8-8-8h6-6----------------|
G|---------------------------7-7-5-----------------------7-7-5-------|
D|-------------------------------------------------------------------|
A|-------------------------------------------------------------------|
E|-------------------------------------------------------------------|

e|----------8-8-8-8h7h5-5---------------8-8-8-8h7h5-5----------------|
B|----------8-8-8-8-8h6-6---------------8-8-8-8-8h6-6----------------|
G|---------------------------7-7-5-----------------------7-7-5-------|
D|-------------------------------------------------------------------|
A|-------------------------------------------------------------------|
E|-------------------------------------------------------------------|

e|----------8-8-8-8h7-7-------|
B|----------8-8-8-8-8-8-------|
G|----------------------------|
D|----------------------------|
A|----------------------------|
E|----------------------------|

Verse Chords Dm C

One starless night
Under shafts of blue light
I caught you staring
at the moon

I felt so warm and so dry
As your song split the sky
I'm dancing under the
Water with you

	Riff 2

e|---------------------------5---6--5--3-------------------------------|
B|---------------------------6---------5-------------------------------|
G|---------------------------7---------5-------------------------------|
D|---------------------------7---------5-------------------------------|
A|---------------------------5---------3-------------------------------|
E|---------------------------5---------3-------------------------------|
    So -  let  - it  -  thunder

Let the Heavens open

Chorus chords Dm C

Sweet sweet rain
Sweet sweet rain
Feel the rain
Sweet sweet rain on your face
Sweet sweet rain 

Riff 1 again 

Verse Chords Dm C

Dont' be afraid, Darling
don't be afraid
Behind the clouds the Sun
is always shining

You're just like a storm
Coming out of the blue
I'm dancing under the
Water with you

So let it Thunder
Let it blow		Riff 2 twice
Let it blow
Wash away my sorrow

Sweet sweet rain
Sweet sweet rain
Feel the rain
Sweet sweet rain on your face

Solo

e|--------------5-5--5^---5-5---5^--5---------------------|
B|-----6------8----8----------8-------8-6-8-6-------------|
G|---7---7------------------------------------7-----------|
D|--------------------------------------------------------|
A|--------------------------------------------------------|
E|--------------------------------------------------------|

e|--------5~--6-5---------5~--6-5-------------------------|
B|----6-8---------8---------------8-----------------------|
G|--7-----------------------------------------------------|
D|--------------------------------------------------------|
A|--------------------------------------------------------|
E|--------------------------------------------------------|

Chords Dm C

Let the Heavens open
Sweet sweet rain
Sweet sweet rain
Feel the rain
Sweet sweet rain on your face
Sweet sweet rain
Feel the rain 
Feel the rain
Feel the rain
Feel the rain...

Any comments,suggestions or improvements would be very welcome.
Please rate it
Thanks :)

comments
We did not receive enough feedback on this tab! Please rate:
1 2 3 4 5
I want to post or [tab]
guest
You may want to rate the tab now too:
select rating
Please do not post tabs as comments. Select "correction" instead!