Oops, an error
Loading. Please wait.

Raindrops Tab

362 views 1 this week
no commentswrite comment
1 2 3 4 5
please rate
Autoscroll
+/-
esc
set tempo
stop
Hey! There's an official Ultimate Guitar app which is ideal
for learning songs when you're away from computer. Get the app
WARNING: You are trying to view
                                    content from Ultimate-Guitar.com
                                    in an unauthorized application,
                                    which is prohibited.

                                    Please use an official Ultimate
                                    Guitar Tabs application for iPhone,
                                    iPad or Android to access legitimate
                                    chords, guitar, bass, and drum tabs
                                    from Ultimate-Guitar.com database.

                                    Type "ultimate guitar tabs" in Apple
                                    App Store's or Android Market's
                                    search to find the application.
E|-------14---------14--------|
B|----------------------------|
G|----------14---------14-s11-|
D|--0-------------------------|
A|----------------------------|
E|----------------------------|

--------10---------10-----|-----------14---------14----|
--------------------------|--10------------------------|
-----------11---------11--|--------------14---------14-|
---0----------------------|------0---------------------|
--------------------------|----------------------------|
--------------------------|----------------------------|

------------10---------10-|---------------12--------|---12-------------9-----|
--------------------------|-------------------------|------------------------|
---11----------11---------|--11--12----------12-----|------12--9---------9---|
-------0------------------|-------------------------|------------------------|
--------------------------|----------0--------------|-------------0----------|
--------------------------|-------------------------|------------------------|

-----9------------12----|------12--------------10----|-------10--------------|
----------8-------------|----------------------------|--------------10-------|
-------9-------------12-|---------12--11----------11-|----------11-----------|
------------------------|-----------------0----------|------------------0----|
-------------0----------|----------------------------|-----------------------|
------------------------|----------------------------|-----------------------|

--14---------14-------------|---10---------10------------|
----------------------------|---------------------10-----|
-----14---------14--11------|------11---------11---------|
------------------------0---|-------------------------0--|
----------------------------|----------------------------|
----------------------------|----------------------------|

----14---------14-----------|-----10---------10---------|
----------------------------|---------------------------|
-------14---------14--11----|--------11---------11--12--|
--------------------------0-|---------------------------|
----------------------------|---------------------------|
----------------------------|---------------------------|

-------12---------12-------|--------9--------9----|
---------------------------|----------------------|
----------12---------12s-9-|----------9--------9--|
---------------------------|----------------------|
--0------------------------|---0------------------|
---------------------------|----------------------|

------9s14------14-14------12-|------------10-------|----------14---------14-|
------------------------------|---------------------|------------------------|
------9s14------14-14------12-|------------11-------|-------------14---------|
------------------------------|-------0-------------|-----0------------------|
------------------------------|---------------------|------------------------|
------------------------------|---------------------|------------------------|

---------------10--------|---10--------------14------|
-------------------------|----------10---------------|
--14--11----------11-----|------11--------------14---|
----------0--------------|--------------0------------|
-------------------------|---------------------------|
-------------------------|---------------------------|

----14--------------10----|------10--------------12----|-------12------------|
--------------------------|----------------------------|---------------------|
-------14--11----------11-|---------11--12----------12-|----------12--9------|
---------------0----------|----------------------------|---------------------|
--------------------------|-----------------0----------|-----------------0---|
--------------------------|----------------------------|---------------------|

--9--------9------------|---12---------12------------|
------------------------|----------------------------|
----9--------9s-12------|------12---------12--11-----|
------------------------|-------------------------0--|
--------------------0---|----------------------------|
------------------------|----------------------------|

----10---------10-----------|-----14---------14---------|
----------------------10----|---------------------------|
-------11---------11--------|--------14---------14--11--|
--------------------------0-|---------------------------|
----------------------------|---------------------------|
----------------------------|---------------------------|

-------10---------10--------|--------14---------14-----|
-------------------------10-|--------------------------|
----------11---------11-----|-----------14---------14--|
--0-------------------------|---0----------------------|
----------------------------|--------------------------|
----------------------------|--------------------------|

-----------10---------10----|------------12---------12-|--------------9------|
----------------------------|--------------------------|---------------------|
--11----------11---------11-|---12----------12---------|--12s-9---------9----|
------0---------------------|--------------------------|---------------------|
----------------------------|-------0------------------|---------0-----------|
----------------------------|--------------------------|---------------------|

---9--------9s14------14-14--|------12-----------10--|---------------9-9-|
-----------------------------|-----------------------|-------------------|
-----9------9s14------14-14--|------12-----------11--|-------------------|
-----------------------------|--------------0--------|-------------------|
-----------------------------|-----------------------|----------0--------|
-----------------------------|-----------------------|-------------------|

----9-9-s12-------12-12-|-------12-12-s17-------|--17-17------17-17----------|
------------------------|-----------------------|--------------------14------|
------------------------|-----------------------|----------------------------|
------------------------|-----------------------|----------------------------|
-------------0----------|------------------0----|------------------------0---|
------------------------|-----------------------|----------------------------|

---9-9------9-9---------|------10------10---------|------12------10---------|
------------------------|------9-------9----------|------9-------9----------|
------------------------|------9-------9----------|------9-------9----------|
---------------------9--|----------------------9--|-------------------------|
------------------------|-------------------------|----------------------0--|
------------------------|-------------------------|-------------------------|

-----------------------|-----------------------|----9-9------9-9--12----|
-----------------------|-----------------------|------------------------|
-----------------------|-----------------------|------------------------|
-------------2------4--|------2----------------|------------------------|
------4----------------|-------------4------0--|----------------------0-|
-----------------------|-----------------------|------------------------|

---12-12------12-12-s17--|-------17-17------17-17-----|--------9-9------9-9--|
-------------------------|-------------------------14-|----------------------|
-------------------------|----------------------------|----------------------|
-------------------------|----------------------------|----------------------|
-------------------------|--0-------------------------|---0------------------|
-------------------------|----------------------------|----------------------|

-------------10------10--|-------------12------10--|-----------------------|
-------------9-------9---|-------------9-------9---|-----------------------|
-------------9-------9---|-------------9-------9---|-----------------------|
------9------------------|------9------------------|-----------------------|
-------------------------|-------------------------|------0------4------7--|
-------------------------|-------------------------|-----------------------|

------5----------|---------14---------14----|------------10---------10-|
------5----------|--------------------------|--------------------------|
------6----------|------------14---------14-|---11----------11---------|
-----------------|----0---------------------|-------0------------------|
------0----------|--------------------------|--------------------------|
-----------------|--------------------------|--------------------------|

---------------14--------|---14--------------10------|
------10-----------------|---------------------------|
--11--------------14-----|------14--11----------11---|
----------0--------------|--------------0------------|
-------------------------|---------------------------|
-------------------------|---------------------------|

-----10--------------12----|------12-------------9---|-------9------------|
---------------------------|-------------------------|------------8-------|
--------11--12----------12-|---------12-s9---------9-|---------9----------|
---------------------------|-------------------------|--------------------|
----------------0----------|----------------0--------|---------------0----|
---------------------------|-------------------------|--------------------|

--12---------12-------------|---10---------10------------|
----------------------------|---------------------10-----|
-----12---------12--11------|------11---------11---------|
------------------------0---|-------------------------0--|
----------------------------|----------------------------|
----------------------------|----------------------------|

----14---------14-----------|-----10---------10---------|
----------------------------|-----------------------10--|
-------14---------14--11----|--------11---------11------|
--------------------------0-|---------------------------|
----------------------------|---------------------------|
----------------------------|---------------------------|

-------14---------14--------|--------10---------10-----|
----------------------------|--------------------------|
----------14---------14--11-|-----------11---------11--|
--0-------------------------|---0----------------------|
----------------------------|--------------------------|
----------------------------|--------------------------|

----------12---------12----|-----------9--------9-|---------9s14------14-14--|
---------------------------|----------------------|--------------------------|
-12----------12---------12-|---9---------9--------|--9------9s14------14-14--|
---------------------------|----------------------|--------------------------|
-----0---------------------|------0---------------|--------------------------|
---------------------------|----------------------|--------------------------|

-----12-----------10---|----------------------|-------------------------|
-----------------------|--------------9-s10---|-----10-----------9-s10--|
-----12-----------11---|--------------10s11---|-----11-----------10s11--|
-------------0---------|---------0------------|-------------0-----------|
-----------------------|----------------------|-------------------------|
-----------------------|----------------------|-------------------------|

--------------14------10--|--------------------|--------------------|
------10------------------|------------10------|----8-------7-8-----|
------11------------------|--------11--11------|----9-------8-9-----|
--------------------------|--------------------|--------------------|
--------------------------|--------------------|-------0------------|
--------------------------|--------------------|--------------------|

---0-----------2s3---|-----3--s---9----s---7-|s--5--0-------------|
---8---s-------4s5---|-----5--s---8----s---8-|s--7--8--7----------|
---------------------|-----------------------|---------7----------|
---------------------|-----------------------|----------------0---|
----------0----------|-----------------------|--------------------|
---------------------|-----------------------|--------------------|

-----------------5---4-|s--5------------5----|--4-s5------------5---|
-------------------7-6-|--------7---------7--|--6-------7---------7-|
-----------------------|---------------------|----------------------|
-----0------0----------|-----------0---------|-------------0--------|
-----------------------|---------------------|----------------------|
-----------------------|---------------------|----------------------|

---4--5----------------|--------------------0-|---2--3-----------3---|
---6-------7--8--------|------------------8---|---4--5-------------5-|
--------------9--------|----------------------|----------------------|
-----------------------|----------------------|----------------------|
---------------------0-|------0------0--------|-------------0--------|
-----------------------|----------------------|----------------------|

---2--3------9--7-----|---------0-------10-|----------------4-|
---4--5------------10-|---8--7----------10-|----------------6-|
----------------------|-----------------11-|------------------|
----------------------|------------0-------|-----------0------|
----------------------|--------------------|------------------|
----------------------|--------------------|------------------|

-s5------5-----------|--4s5------5------14-----|---10------------------|
-s7------7-----------|--6s7------7-------------|-----------------10----|
---------------------|-------------------------|-------------11--11----|
----------------0----|-------------------------|-----------------------|
---------------------|-------------------------|-----------------------|
---------------------|-------------------------|-----------------------|

-------0---------0-|-------3-----------2s3-|-------3------9-----|
-------8-------7-8-|-------5-----------4s5-|-------5------8-----|
---------------8---|-----------------------|--------------------|
-------------------|-----------------------|--------------------|
----------0--------|--------------0--------|--------------------|
-------------------|-----------------------|--------------------|

-----7--5--0-----------|-------------------5-|-----4--5------------|
-----8--7--8--7--------|---------------------|--7--6-------7-------|
--------------7--------|---------------------|---------------------|
---------------------0-|-------0------0------|----------------0----|
-----------------------|---------------------|---------------------|
-----------------------|---------------------|---------------------|

--5----4--5------------|---5----4--5-------3---|-----------------------|
----7--6-------7-------|-----7--6-------7--5---|-----------------------|
-----------------------|-----------------------|-----------------------|
------------------0----|-----------------------|-----------------------|
-----------------------|-----------------------|-----0------0------0---|
-----------------------|-----------------------|-----------------------|

---3-0--2--3----------|---3-0--2--3------9--|--7------------0-----|
--------4--5----------|--------4--5---------|-----10--8--7--------|
----------------------|---------------------|---------------------|
----------------------|---------------------|------------------0--|
------------------0---|---------------------|---------------------|
----------------------|---------------------|---------------------|

----10-------------|-------------------|------7------7-----------|
----10----------7--|----6------7-------|------8------8-----------|
----11-------------|----------------0--|------7------7-----------|
-------------------|-------------------|--------------------7--6-|
----------------9--|----8------9-------|-------------------------|
-------------------|-------------------|-------------------------|

--------------------7--|------5--------2--|----1-------------|
-------------5------8--|------7-----------|------------------|
------6----------------|------------------|---------------0--|
---7-------------------|---------------4--|----3-------------|
-----------------------|------------------|------------------|
-----------------------|------------------|------------------|

------7------7-----------|---------3--2--0-----|----10-------------|
------8------8-----------|---------------------|----10----------7--|
------7------7-----------|------6-----2--0-----|----11-------------|
--------------------7--6-|---7--------------0--|-------------------|
-------------------------|---------------------|----------------9--|
-------------------------|---------------------|-------------------|

---------------------|------7------7-----------|--------------------7--|
----6------7---------|------8------8-----------|-------------5------8--|
------------------0--|------7------7-----------|------6----------------|
---------------------|--------------------7--6-|---7-------------------|
----8------9---------|-------------------------|-----------------------|
---------------------|-------------------------|-----------------------|

------5--------2--|----1------2---------|------7------7-----------|
------7-----------|---------------------|------8------8-----------|
------------------|------------------0--|------7------7-----------|
---------------4--|----3------4---------|--------------------7--6-|
------------------|---------------------|-------------------------|
------------------|---------------------|-------------------------|

---------3--2--0-----|----10-------------|----14---------14-----------|
---------------------|----10-------------|----------------------12----|
------6-----2--0-----|----11-------------|-------14---------14--------|
---7--------------0--|----------------0--|--------------------------0-|
---------------------|-------------------|----------------------------|
---------------------|-------------------|----------------------------|

-----10---------10---------|-------14---------14--------|
-------------------12--10--|----------------------------|
--------11-----------------|----------14---------14s-11-|
---------------------------|--0-------------------------|
---------------------------|----------------------------|
---------------------------|----------------------------|

-------10---------10-----|-----------12---------12----|-----------9--------9-|
-------------------------|----------------------------|----------------------|
----------11---------11--|--12----------12---------12-|---9---------9--------|
--0----------------------|----------------------------|----------------------|
-------------------------|------0---------------------|------0---------------|
-------------------------|----------------------------|----------------------|

-------------12--------|---12--------------10------|-----10--------------14----|
-----8-----------------|---------------------------|------------10-------------|
--9-------------12-----|------12--11----------11---|--------11--------------14-|
-----------------------|--------------0------------|----------------0----------|
--------0--------------|---------------------------|---------------------------|
-----------------------|---------------------------|---------------------------|

------14--------------10----|-------10--------------|
----------------------------|--------------10-------|
---------14--11----------11-|----------11-----------|
-----------------0----------|------------------0----|
----------------------------|-----------------------|
----------------------------|-----------------------|

--14---------14-------------|---10---------10------------|
----------------------------|----------------------------|
-----14---------14--11------|------11---------11-s12-----|
------------------------0---|----------------------------|
----------------------------|-------------------------0--|
----------------------------|----------------------------|

----12---------12----------|-----9--------9--------|
---------------------------|-----------------------|
-------12---------12s-9----|-------9--------9------|
---------------------------|-----------------------|
-------------------------0-|-----------------------|
---------------------------|-----------------------|

--9s14------14-14------12---|----------10---------|------------||
----------------------------|---------------------|------------||
--9s14------14-14------12---|----------11---------|------------||
----------------------------|-----0---------------|---||
----------------------------|---------------------|------------||
----------------------------|---------------------|------------||
comments
We did not receive enough feedback on this tab! Please rate:
print report bad tab
1 2 3 4 5
I want to post or [tab]
guest
You may want to rate the tab now too:
select rating
Please do not post tabs as comments. Select "correction" instead!