Oops, an error
Loading. Please wait.

Art Of Dying Bass Tab

207 views 6 this week
no commentswrite comment
1 2 3 4 5
please rate
Autoscroll
+/-
esc
set tempo
stop
Contributor
Difficulty
intermediate
WARNING: You are trying to view
                                    content from Ultimate-Guitar.com
                                    in an unauthorized application,
                                    which is prohibited.

                                    Please use an official Ultimate
                                    Guitar Tabs application for iPhone,
                                    iPad or Android to access legitimate
                                    chords, guitar, bass, and drum tabs
                                    from Ultimate-Guitar.com database.

                                    Type "ultimate guitar tabs" in Apple
                                    App Store's or Android Market's
                                    search to find the application.
ART OF DYING 




INTRO
     Q    E  S S E  E  E  E     Q    E  S S E  E  E  E   
G||--------------------------|--------------------------|
D||--7----7------7--7-----5--|--7----7------7--7-----5--|
A||------------7-------7-----|------------7-------7-----|
E||--------------------------|--------------------------|


  Q    E  S S E  E  E  E     Q    E  S S E  E  E  E   
--------------------------|--------------------------|
--7----7------7--7-----5--|--7----7------7--7-----5--|
------------7-------7-----|------------7-------7-----|
--------------------------|--------------------------|


  Q    E  S S E  E  E  E     Q    E  S S E  E  E  E   
--------------------------|--------------------------|
--7----7------7--7-----5--|--7----7------7--7--5-----|
------------7-------7-----|------------7----------7--|
--------------------------|--------------------------|


  E  E  E  E  E  E  E  E     E  E  E  E  E  E  E  E   
--------------------------|--------------------------|
--------------------------|-----------------------5--|
--7--7--7--7--7--7--7--7--|--7--7--7--7--7--7--7-----|
--------------------------|--------------------------|


VERSE

  E  E  E  E  E  E  E  E     E  E  E  E  E  E  E  E   
--------------------------|--------------------------|
--7--7-----7-----7-----7--|-----7-----7-----7--------|
--------------------------|-----------------------7--|
--------------------------|--------------------------|


  E  E  E  E  E  E  E  E     E  E  E  E  E  E  E  E   
--------------------------|--------------------------|
--------------------------|--------------------------|
--8--8-----8-----8-----8--|-----8-----8-----8-----8--|
--------------------------|--------------------------|


  E  E  E  E  E  E  E  E     E  E  E  E  E  E  E  E   
--------------------------|--------------------------|
--------------------------|--------------------------|
--7--7-----7-----7-----7--|-----7-----7-----7--5-----|
--------------------------|-----------------------7--|


  E  E  E  E  E  E  E  E     E  E  E  E  E  E  E  E   
--------------------------|--------------------------|
--------------------------|--------------------------|
--------------------------|--------------------5--7--|
--5--5-----5-----5-----5--|-----5-----5--5--8--------|


  E  E  E  E  E  E  E  E     E  E  E  E  E  E  E  E   
--------------------------|--------------------------|
--7--7-----7-----7-----7--|-----7-----7-----7--------|
--------------------------|-----------------------7--|
--------------------------|--------------------------|


  E  E  E  E  E  E  E  E     E  E  E  E  E  E  E  E   
--------------------------|--------------------------|
--------------------------|--------------------------|
--8--8-----8-----8-----8--|-----8-----8-----8-----8--|
--------------------------|--------------------------|


  E  E  E  E  E  E  E  E     E  E  E  E  E  E  E  E   
--------------------------|--------------------------|
--------------------------|--------------------------|
--7--7-----7-----7-----7--|-----7-----7-----7--5-----|
--------------------------|-----------------------7--|


                                                        CHORUS

  E  E  E  E  E  E  E  E     E  E  E  E  E  E  E  E     Q    E  E  E  E  E  E   
--------------------------|--------------------------|-------------------------|
--------------------------|--------------------------|-------------------------|
--------------------------|--------------------5--6--|--7----7-----5--7-----7--|
--5--5-----5-----5-----5--|-----5-----5--5--8--------|----------7--------0-----|


  E  E  E  E  E  E  E  E     Q    E  E  E  E  E  E     E  E  E  E  E  E  E  E   
--------------------------|-------------------------|--------------------------|
--------------------5--6--|--7----7-----5--7-----7--|-----7-----7-----7-----5--|
-----7-----5--7-----------|----------7--------------|--------------------7-----|
--------7--------0--------|-------------------5-----|--------5-----5-----------|


VERSE

  E  E  E  E  E  E  E  E     E  E  E  E  E  E  E  E   
--------------------------|--------------------------|
--7--7-----7-----7-----7--|-----7-----7-----7--------|
--------------------------|-----------------------7--|
--------------------------|--------------------------|


  E  E  E  E  E  E  E  E     E  E  E  E  E  E  E  E   
--------------------------|--------------------------|
--------------------------|--------------------------|
--8--8-----8-----8-----8--|-----8-----8-----8-----8--|
--------------------------|--------------------------|


  E  E  E  E  E  E  E  E     E  E  E  E  E  E  E  E   
--------------------------|--------------------------|
--------------------------|--------------------------|
--7--7-----7-----7-----7--|-----7-----7-----7--5-----|
--------------------------|-----------------------7--|


  E  E  E  E  E  E  E  E     E  E  E  E  E  E  E  E   
--------------------------|--------------------------|
--------------------------|--------------------------|
--------------------------|--------------------5--7--|
--5--5-----5-----5-----5--|-----5-----5--5--8--------|


  E  E  E  E  E  E  E  E     E  E  E  E  E  E  E  E   
--------------------------|--------------------------|
--7--7-----7-----7-----7--|-----7-----7-----7--------|
--------------------------|-----------------------7--|
--------------------------|--------------------------|


  E  E  E  E  E  E  E  E     E  E  E  E  E  E  E  E   
--------------------------|--------------------------|
--------------------------|--------------------------|
--8--8-----8-----8-----8--|-----8-----8-----8-----8--|
--------------------------|--------------------------|


  E  E  E  E  E  E  E  E     E  E  E  E  E  E  E  E   
--------------------------|--------------------------|
--------------------------|--------------------------|
--7--7-----7-----7-----7--|-----7-----7-----7--5-----|
--------------------------|-----------------------7--|

                                                        CHORUS

  E  E  E  E  E  E  E  E     E  E  E  E  E  E  E  E     Q    E  E  E  E  E  E   
--------------------------|--------------------------|-------------------------|
--------------------------|--------------------------|-------------------------|
--------------------------|--------------------5--6--|--7----7-----5--7-----7--|
--5--5-----5-----5-----5--|-----5-----5--5--8--------|----------7--------0-----|


  E  E  E  E  E  E  E  E     Q    E  E  E  E  E  E     E  E  E  E  E  E  E  E   
--------------------------|-------------------------|--------------------------|
--------------------5--6--|--7----7-----5--7-----7--|--L--7-----7-----7--5-----|
--L--7-----5--7-----------|----------7--------------|-----------------------7--|
--------7--------0--------|-------------------5-----|--------5-----5-----------|


CHORUS "2"

  E  E  E  E  E  E  E  E     E  E  E  E  E  E  E  E   
--------------------------|--------------------------|
--------------------------|--------------------------|
--------------7--7--------|--------------7--7--------|
--5--5--8--9--------8--9--|--5--5--8--9--------8--9--|


  E  E  E  E  E  E  E  E     E  E  E  E  E  E  E  E   
--------------------------|--------------------------|
--------------7--7--------|--------------7--7--------|
--5--5--7--8--------8--7--|--5--5--7--8--------8--7--|
--------------------------|--------------------------|


  E  E  E  E  E  E  E  E     E  E  E  E  E  E  E  E   
--------------------------|--------------------------|
--------------6--6--------|--------------6--6--------|
--5--5--7--8--------8--7--|--5--5--7--8--------8--7--|
--------------------------|--------------------------|


  E  E  E  E  E  E  E  E     E  E  E  E  E  E  E  E   
--------------------------|--------------------------|
--------------------------|--------------------------|
--------------7--7--------|--------------7--7--------|
--5--5--7--8--------8--7--|--5--5--7--8--------8--7--|


  E  E  E  E  E  E  E  E     E  E  E  E  E  E  E  E   
--------------------------|--------------------------|
--------------------------|--------------------------|
--------------7--7--------|--------------7--7--------|
--5--5--8--9--------8--9--|--5--5--8--9--------8--9--|


  E  E  E  E  E  E  E  E     E  E  E  E  E  E  E  E   
--------------------------|--------------------------|
--------------7--7--------|--------------7--7--------|
--5--5--7--8--------8--7--|--5--5--7--8--------8--7--|
--------------------------|--------------------------|


  E  E  E  E  E  E  E  E     E  E  E  E  E  E  E  E   
--------------------------|--------------------------|
--------------6--6--------|--------------6--6--------|
--5--5--7--8--------8--7--|--5--5--7--8--------8--7--|
--------------------------|--------------------------|

                                                       GUITAR

  E  E  E  E  E  E  E  E     E  E  E  E  E  Q.                          
--------------------------|------------------------|---------|---------|
--------------------------|--------------7---------|---------|---------|
--------------7--7--------|-----------7------------|---------|---------|
--5--5--7--8--------8--7--|--5--7--8---------------|---------|---------|

                      INTRO "2" VARIATION

                      Q    E  S S E  E  E  E     Q    E  S S E  E  E  E   
---------|---------|--------------------------|--------------------------|
---------|---------|-------7------7--7--5-----|-------7------7--7--5-----|
---------|---------|------------7----------7--|------------7----------7--|
---------|---------|--5-----------------------|--5-----------------------|


  Q    E  S S E  E  E  E     Q    E  S S E  E  E  E   
--------------------------|--------------------------|
-------7------7--7--5-----|-------7------7--7--5-----|
------------7----------7--|------------7----------7--|
--5-----------------------|--5-----------------------|


  Q    E  S S E  E  E  E     Q    E  S S E  E  E  E   
--------------------------|--------------------------|
-------7------7--7--5-----|-------7------7--7--5-----|
------------7----------7--|------------7----------7--|
--5-----------------------|--5-----------------------|


  E  E  E  E  E  E  E  E     E  E  E  E  E  E  E  E   
--------------------------|--------------------------|
--------------------------|-----------------------5--|
--7--7--7--7--7--7--7--7--|--7--7--7--7--7--7--7-----|
--------------------------|--------------------------|

VERSE


  E  E  E  E  E  E  E  E     E  E  E  E  E  E  E  E   
--------------------------|--------------------------|
--7--7-----7-----7-----7--|-----7-----7-----7--------|
--------------------------|-----------------------7--|
--------------------------|--------------------------|


  E  E  E  E  E  E  E  E     E  E  E  E  E  E  E  E   
--------------------------|--------------------------|
--------------------------|--------------------------|
--8--8-----8-----8-----8--|-----8-----8-----8-----8--|
--------------------------|--------------------------|


  E  E  E  E  E  E  E  E     E  E  E  E  E  E  E  E   
--------------------------|--------------------------|
--------------------------|--------------------------|
--7--7-----7-----7-----7--|-----7-----7-----7--5-----|
--------------------------|-----------------------7--|


  E  E  E  E  E  E  E  E     E  E  E  E  E  E  E  E   
--------------------------|--------------------------|
--------------------------|--------------------------|
--------------------------|--------------------5--7--|
--5--5-----5-----5-----5--|-----5-----5--5--8--------|


  E  E  E  E  E  E  E  E     E  E  E  E  E  E  E  E   
--------------------------|--------------------------|
--7--7-----7-----7-----7--|-----7-----7-----7--------|
--------------------------|-----------------------7--|
--------------------------|--------------------------|


  E  E  E  E  E  E  E  E     E  E  E  E  E  E  E  E   
--------------------------|--------------------------|
--------------------------|--------------------------|
--8--8-----8-----8-----8--|-----8-----8-----8-----8--|
--------------------------|--------------------------|


  E  E  E  E  E  E  E  E     E  E  E  E  E  E  E  E   
--------------------------|--------------------------|
--------------------------|--------------------------|
--7--7-----7-----7-----7--|-----7-----7-----7--5-----|
--------------------------|-----------------------7--|

                                                          CHORUS

  E  E  E  E  E  E  E  E     E  E  E  E  E  E  E  E     Q    E  E  E  E  E  E   
--------------------------|--------------------------|-------------------------|
--------------------------|--------------------------|-------------------------|
--------------------------|--------------------5--6--|--7----7-----5--7-----7--|
--5--5-----5-----5-----5--|-----5-----5--5--8--------|----------7--------0-----|


  E  E  E  E  E  E  E  E     Q    E  E  E  E  E  E     E  E  E  E  E  E  E  E   
--------------------------|-------------------------|--------------------------|
--------------------5--6--|--7----7-----5--7-----7--|--L--7-----7-----7-----5--|
--L--7-----5--7-----------|----------7--------------|--------------------7-----|
--------7--------0--------|-------------------5-----|--------5-----5-----------|


  Q    E  E  E  E  E  E     E  E  E  E  E  E  E  E     Q    E  E  E  E  E  E   
-------------------------|--------------------------|-------------------------|
-------------------------|--------------------5--6--|--7----7-----5--7-----7--|
--7----7-----5--7-----7--|--L--7-----5--7-----------|----------7--------------|
----------7--------0-----|--------7--------0--------|-------------------5-----|

                            "END"

  E  E  E  E  E  E  E  E     E  E  E  E  E  E  E  E   
--------------------------|--------------------------|
--L--7-----7-----7--------|--------------------------|
--------------------7-----|--------------------------|
--------5-----5--------5--|-----5-----5-----5-----5--|


  E  E  E  E  E  E  E  E     E  E  E  E  E  E  E  E   
--------------------------|--------------------------|
--------------------------|--------------------------|
--------------------------|--------------------------|
-----5-----5-----5-----5--|-----5-----5-----5-----5--|


  E  E  E  E  E  E  E  E     E  E  E  E  E  E  E  E   
--------------------------|--------------------------|
--------------------------|--------------------------|
--------------------------|--------------------------|
-----5-----5-----5-----5--|-----5-----5-----5-----5--|


  E  E  E  E  E  E  E  E     E  E  E  E  E  E  E  E   
--------------------------|--------------------------|
--------------------------|--------------------------|
--------------------------|--------------------------|
-----5-----5-----5-----5--|-----5-----5-----5-----5--|


  E  E  E  E  E  E  E  E     E  E          
--------------------------|--------|-----||
--------------------------|--------|-----||
--------------------------|--------|-----||
-----5-----5-----5-----5--|-----5--|-----||




Duration Legend
---------------
W - whole
H - half
Q - quarter
E - 8th
S - 16th
T - 32nd
X - 64th
. - note dotted
|-n-|  - n-tuplets


Tablature Legend
----------------
L - tied note
x - dead note
g - grace note
(n) - ghost note
> - accentuded note
NH - natural harmonic
AH - artificial harmonic
TH - tapped harmonic
SH - semi harmonic
PH - pitch harmonic
h - hammer on
p - pull off
b - bend
br - bendRelease
pb - preBend
pbr - preBendRelease
brb - bendReleaseBend
\n/ - tremolo bar dip
\n - tremolo bar dive
-/n - tremolo bar Release up
/n\ - tremolo bar inverted dip
/n - tremolo bar return
-\n - tremolo bar Release down
S - shift slide
s - legato slide
/ -  slide into from below or out of upwards
\ -  slide into from above or out of downwards
~ - vibrato
W - wide vibrato
tr - trill
TP - tremolo picking
T - tapping
S - slap
P - pop
< - fade in
^ - brush up
v - brush down
comments
We did not receive enough feedback on this tab! Please rate:
print report bad tab
1 2 3 4 5
I want to post or [tab]
guest
You may want to rate the tab now too:
select rating
Please do not post tabs as comments. Select "correction" instead!