Oops, an error
Loading. Please wait.

Last Christmas Tab

ver2
ver2

Solo

Whole song

Interactive

More versions @911Tabs.com
11,929 views 3 this week
no commentswrite comment
1 2 3 4 5
excellent!
x 1
Autoscroll
+/-
esc
set tempo
stop
Difficulty
advanced
Hey! There's an official Ultimate Guitar app which is ideal
for learning songs when you're away from computer. Get the app
WARNING: You are trying to view
                                    content from Ultimate-Guitar.com
                                    in an unauthorized application,
                                    which is prohibited.

                                    Please use an official Ultimate
                                    Guitar Tabs application for iPhone,
                                    iPad or Android to access legitimate
                                    chords, guitar, bass, and drum tabs
                                    from Ultimate-Guitar.com database.

                                    Type "ultimate guitar tabs" in Apple
                                    App Store's or Android Market's
                                    search to find the application.
Tabbed by: Graham Choo
Email: da_tweens@yahoo.co.uk
Tuning: D A D G B d

| /  slide up
| \  slide down
| h  hammer-on
| p  pull-off
| ~  vibrato
| +  harmonic
| x  Mute note
| |  Muted slap


Intro:
   D          Dsus7               D7              G
d|-12-------12-11------11-------------------------5-------5-----------|
B|-10----10----10---10----10-12-12/13-13-10h12-10-3-----3-------------|
G|-11-11-------9--9-------11-12-12/14-14-12----11-4---4---------------|
D|-0-----------0----------------------------------0-0-----------------|
A|--------------------------------------------------------------------|
D|--------------------------------------------------------------------|

       Em            D Bm      Em                A
d|---7-7h9-----12-11\7-9-7-----------7h9-7----------------------------|
B|-8-7-8-----8-0--10\7-7---8-7-8-----7h8---7+----5-3-2----------------|
G|-9---9---9---0--0--7-8-------7---7----------7+-6--------------------|
D|-------------------0---------9-9---------------7--------------------|
A|-----7-----------------------7-----------------0--------------------|
D|---------------------9----------------------------------------------|

Verse 1:
   D                       Bm
d|-----------------2/4---------2h4------------------------------------|
B|-3/5-5\3-3-3/5-5-----3---5-5-----3-3-2-3-2--------------------------|
G|-----------------------2---------4---------4-----4------------------|
D|-0---------0---------0-------------------------4--------------------|
A|-------------------------2-------------------2----------------------|
D|--------------------------------------------------------------------|

   Em                          A
d|-4-----2-----0-4-5-4-2-----0-0-0-0-0-0------------------------------|
B|-----0-----0-------------0-----0-0-0-0-1/2-------2------------------|
G|---0-----0-------------0-----------------------2--------------------|
D|-2-------------2-----2-----------------------2----------------------|
A|-----------------------------0-------------0------------------------|
D|--------------------------------------------------------------------|

   D                       Bm
d|-2---2-----2-2-2h4-------2-2-2h4------------------------------------|
B|-2---2-3---2-2-2h3-3-----2-2-2h3-3-----3-2-3-2----------------------|
G|-2-2---2-2-2-------2---2-2-------2---2---2-----4--------------------|
D|-------4-----------4-4-----------4-4-----4---------0----------------|
A|-------------------------2-------2-------2-------4---4-2------------|
D|-0---------0-------0------------------------------------------------|

   Em                          A
d|-4-----2-----0-4-5-4-2-----0-0-0-0-0-0------------------------------|
B|-0---0-----0---0-----0---0---0-0-0-0-0-1/2-------------2-0----------|
G|-0-0-----0-----0-----0-0-----2---------2-------2-----2-2-2----------|
D|---------------------------------------------2-----2----------------|
A|-----------------------------0-------------0-----0------------------|
D|-2-------------2-----2----------------------------------------------|

Verse 2:
   D                                Bm
d|-2-----/7-7-----------------------2-----------------7---------------|
B|-2---2-/7-------2-----2-------2-3-----3-2-------------7-------------|
G|-2-2---/7-----2-----2---2-2-4-------2-----4-4-----4-----9-7---------|
D|------------0-------------------------------4---4-------------------|
A|----------------------------------2---------2-2---------------------|
D|-0----------------0-------------------------------------------------|

   Em                              A
d|---------0-----0-------0-9-------------0----------------------------|
B|-------0-----0-------0-----8-------0-------0------------------------|
G|-0---0-----0-------0---------9-6-6---6---6-----6-6-6-6--------------|
D|-2-2-----------------------------7-----------7-7-7-7-7--------------|
A|-2-------------------------------0-------------0-0-0-0--------------|
D|-2---------------2--------------------------------------------------|

   D                     Bm
d|---2-2---7---|-------0---------------9-9-9-----|--------------------|
B|---2-2-3-7-7-|-5h7-5-0---5-5-5-5-3-----------7-|--------------------|
G|---2-2-2-7-7-|-6h7-6-----2-2-2-2-2-------------|-9-7----------------|
D|-------4-----|-0-------------------------------|--------------------|
A|-------------|---------2-----2-2---------------|--------------------|
D|-0-------0---|-----------------------------9---|--------------------|

   Em                              A
d|-----4---------------4-------------0-0-0-0-0-0----------------------|
B|-----0-0-3-5---0-----0-0-3-5---0---0-0-0-0-0-0-2-0------------------|
G|---0---0-0---0-----0---0-0---0-----2-2-2-2-2-2-2-0-2----------------|
D|-----------------------------------------------2-0-2----------------|
A|---------------------------------0-----------0-----0----------------|
D|-2---------------2--------------------------------------------------|

Verse 3:
   D                        Bm
d|-----7+-|---|---|---|---|-----------|-2h4-|-------------------------|
B|-----7+-|---|---|---|---|-5-3---2-3-|-3---|-------3-----------------|
G|-----7+-|-2-|-4-|-6-|-7-|-2-2---2-2-|-2---|-----2-------------------|
D|---0----|-4-|-5-|-7-|-7-|-4---------|-----|---4---------------------|
A|--------|---|---|---|---|-2---2-----|-2---|-2-----------------------|
D|-0------|---|---|---|---|-----------|-----|-------------------------|

   Em                          A
d|-4-----0-0-----4-----0-0-----0-0-0-0-0-0----------------------------|
B|-0---0-0-0---0-0---0-0-0---0-0-0-0-0-0-0---0-0-0--------------------|
G|-0-0-------0---0-0-------0---0-0-------0-6-6-6-6--------------------|
D|-----------------------------------------7-7-7-7--------------------|
A|-----------------------------------------0-0-0-0--------------------|
D|-2-------------2-------------7---7-7-7------------------------------|

Verse 4:
   D                         Bm
d|-2-|-2---|---2-2-2h4---|---2-2-2h4---|----------------------------|
B|-2-|-2-3-|---2-2-2h3-3-|-3-2-2-2h3-3-|-3-3-2-3-2------------------|
G|-2-|-2-2-|-2-2-------2-|-2-2-------2-|-----------4-----4----------|
D|---|---4-|-----------4-|-4---------4-|---------------4------------|
A|---|-----|-------------|-0-2-------2-|---2-2-------2--------------|
D|-0-|-0---|---0-------0-|-0-----------|----------------------------|

   Em                      A
d|-4-|-2-----0-4-5-4-2-2-0-0-0-0-0-0-|-----0-0-0-0--------------------|
B|-0-|-0---0---0-----0-0---0-0-0-0-0-|-1/2-2-2-2-2--------------------|
G|-0-|-0-0-----0-----0-0---2-2-------|-2---2-2-2-2--------------------|
D|---|-------------------------------|-----2-2-2-2--------------------|
A|---|---------------------0---0-0-0-|--------------------------------|
D|-2-|-2-------2-----2---------------|--------------------------------|

Verse 4

Verse 5:
         D
d|----------0------------11----11h12-11-------------------------------|
B|-10h12-10-10-----10-12-10----10----10----10-------------------------|
G|-------11-11-----11-11-11-11----------11----------------------------|
D|-------12-12--------------------------------------------------------|
A|--------------------------------------------------------------------|
D|-------0-----0-0-------0--------------------------------------------|

   Bm
d|-12----11-----------------------------------------------------------|
B|-10-----------10----------10----------------------------------------|
G|-11--------------11-------11----------------------------------------|
D|-----9------------------9-------------------------------------------|
A|---9--------9---------9---------------------------------------------|
D|-9--------9---------9-----------------------------------------------|

            Em
d|--------------------------------------------------------------------|
B|-7-8-8h10-----------7-8-8h10----------------------------------------|
G|--------------7-7h9--------------7-7h9------------------------------|
D|------------9------------------9---------9--------------------------|
A|----------7------------------7---------7----------------------------|
D|--------------------------------------------------------------------|

       A
d|-------------|-----|-5-7/9------------------------------------------|
B|-------------|-5-7-|------------------------------------------------|
G|-9\7-7-7-6-7-|-----|------------------------------------------------|
D|-9\7-7-7-7---|-----|------------------------------------------------|
A|-----0---0---|-0-0-|-0-0--------------------------------------------|
D|-------------|-----|------------------------------------------------|

   D                                     Bm
d|-------------11/14-14\11-11-|--------|-2---------|-2h4-|-4-----|----|
B|-10-------10-10/14-14\10-10-|-10\7-7-|-2-3---2-3-|-3---|-3---3-|----|
G|-11----11-------------------|-11\7-7-|-2-2---2-2-|-----|-----2-|----|
D|-12-12----------------------|--------|-----------|-----|-------|----|
A|----------------------------|--------|-2---2-----|-2---|-2-2---|----|
D|-0-----------------0--------|-0------|-----------|-----|-------|----|

   Em                     A
d|-0-0-------|-0-0-0+14-0-0-0-----------------------------------------|
B|-0-0-------|-0-0-0+14-0-0-0-----------------------------------------|
G|-0-0-------|-0-0-0+14-0-2-0-0---------------------------------------|
D|---2-----2-|---2-2+14-2-2---7---------------------------------------|
A|-------2---|-----2+14---0---7---------------------------------------|
D|-2---2-----|-2---2+14-------7---------------------------------------|

d|-0+12-0+12-0+12-0+12-0+12-0+12-0+17-0+19-0+19-0+19------------------|
B|-0+12-0+12-0+12-0+12-0+12-0+12-0+17-0+19-0+19-0+19------------------|
G|-0+12-0+12-0+12-0+12-0+12-0+12-0+17-0+19-0+19-0+19------------------|
D|-7+12-7+12-7+12-7+12-7+12-7+12-7+17-7+19-7+19-7+19------------------|
A|-7+12-7+12-7+12-7+12-7+12-7+12-7+17-7+19-7+19-7+19------------------|
D|-7+12-7+12-7+12-7+12-7+12-7+12-7+17-7+19-7+19-7+19------------------|

Verse 6:
   D                         Bm
d|-2---------|---2---------|-2---------|---2---------|----------------|
B|-2-3---2-3-|---3-3---3-3-|-2-3---2-3-|---2-3---3-3-|----------------|
G|-2-2---2-2-|-2-2---2-2-2-|-2-2---2-2-|-2-2---2-2-2-|----------------|
D|---4---0-4-|---------4-4-|---4---2-4-|---------4-4-|----------------|
A|-----------|-------------|-2---2-----|---2-----2---|----------------|
D|-0---0-----|---0-----0---|-----------|-------------|----------------|

   Em                        A
d|-4-----0-----4-----0-0-----0-0-0------------------------------------|
B|-0---0-0---0-0---0-0-0-----0-0-0------------------------------------|
G|-0-0---0-0---0-0---0-------0-0-0------------------------------------|
D|---------------------------7----------------------------------------|
A|---------------------------7----------------------------------------|
D|-2-----2-----2-----2---2/7-7----------------------------------------|

d|-0+12-0+12-0+19-0+19-0+12-0+12-0+12-0+12-0+12-0+12------------------|
B|-0+12-0+12-0+19-0+19-0+12-0+12-0+12-0+12-0+12-0+12------------------|
G|-0+12-0+12-0+19-0+19-0+12-0+12-0+12-0+12-0+12-0+12------------------|
D|-7+12-7+12-7+19-7+19-7+12-7+12-7+12-7+12-7+12-7+12------------------|
A|-7+12-7+12-7+19-7+19-7+12-7+12-7+12-7+12-7+12-7+12------------------|
D|-7+12-7+12-7+19-7+19-7+12-7+12-7+12-7+12-7+12-7+12------------------|

Verse 7:
   D                         Bm
d|-2-|-2---|---2-2-2h4---|---2-2-2h4----------------------------------|
B|-2-|-2-3-|---2-2-2h3-3-|---2-2-2h3-3---3-2-3-2----------------------|
G|-2-|-2-2-|-2-2-------2-|-2-2-------2-----------4-----4--------------|
D|---|---4-|-----------4-|-----------4-4-------------4----------------|
A|---|-----|-------------|---2-------2-----2-------2------------------|
D|-0-|-0---|---0-------0-|--------------------------------------------|

   Em                      A
d|-4-|-2-----0-4-5-4-2-2-0-0-0-0-0-0-0-0------------------------------|
B|-0-|-0---0---0-----0-0---0-0-0-0-0-0-0------------------------------|
G|-0-|-0-0-----0-----0-0---2-2-2-0-0-0-0------------------------------|
D|---|---------------------------7------------------------------------|
A|---|---------------------0-----7------------------------------------|
D|-2-|-2-------2-----2-----------7------------------------------------|

d|-0+12-0+12-0+12-0+12-0+12-0+12-0+12-0+12----------------------------|
B|-0+12-0+12-0+12-0+12-0+12-0+12-0+12-0+12----------------------------|
G|-0+12-0+12-0+12-0+12-0+12-0+12-0+12-0+12----------------------------|
D|-7+12-7+12-7+12-7+12-7+12-7+12-7+12-7+12----------------------------|
A|-7+12-7+12-7+12-7+12-7+12-7+12-7+12-7+12----------------------------|
D|-7+12-7+12-7+12-7+12-7+12-7+12-7+12-7+12----------------------------|

   D                         Bm
d|-2-|-2---|---2-2-2h4---|---2-2-2h4---|------------------------------|
B|-2-|-2-3-|---2-2-2h3-3-|---2-2-2h3-3-|-3-3-2-3-2--------------------|
G|-2-|-2-2-|-2-2-------2-|-2-2-------2-|-----------4-----4------------|
D|---|---4-|-----------4-|-----------4-|---------------4--------------|
A|---|-----|-------------|---2-------2-|---2-2-------2----------------|
D|-0-|-0---|---0-------0-|-------------|------------------------------|

   Em                      A
d|-4-|-2-----0-4-5-4-2-2-0-0-0-0--------------------------------------|
B|-0-|-0---0---0-----0-0---0-0-0--------------------------------------|
G|-0-|-0-0-----0-----0-0---2-2-2--------------------------------------|
D|---|----------------------------------------------------------------|
A|---|---------------------0------------------------------------------|
D|-2-|-2-------2-----2------------------------------------------------|

d|-0+12-0+12-0+12-0+12-0+12-0+12-0+12-0+12-0+12-0+12------------------|
B|-0+12-0+12-0+12-0+12-0+12-0+12-0+12-0+12-0+12-0+12------------------|
G|-2+12-2+12-2+12-2+12-2+12-2+12-2+12-2+12-2+12-2+12------------------|
D|-2+12-2+12-2+12-2+12-2+12-2+12-2+12-2+12-2+12-2+12------------------|
A|-0+12-0+12-0+12-0+12-0+12-0+12-0+12-0+12-0+12-0+12------------------|
D|-x+12-x+12-x+12-x+12-x+12-x+12-x+12-x+12-x+12-x+12------------------|

d|-0+19-0+19-0+12-0+12-0+12-0+12--------------------------------------|
B|-0+19-0+19-0+12-0+12-0+12-0+12--------------------------------------|
G|-2+19-2+19-2+12-2+12-2+12-2+12--------------------------------------|
D|-2+19-2+19-2+12-2+12-2+12-2+12--------------------------------------|
A|-0+19-0+19-0+12-0+12-0+12-0+12--------------------------------------|
D|-x+19-x+19-x+12-x+12-x+12-x+12--------------------------------------|

Verse 8:
   D                       Bm
d|-----------------2/4---------2h4------------------------------------|
B|-3/5-5\3-3-3/5-5-----3---5-5-----3-3-2-3-2--------------------------|
G|-----------------------2---------4---------4-----4------------------|
D|-0---------0---------0-------------------------4--------------------|
A|-------------------------2-------------------2----------------------|
D|--------------------------------------------------------------------|

   Em                          A
d|-4-----2-----0-4-5-4-2-----0-0-0-0-0-0------------------------------|
B|-----0-----0-------------0-----0-0-0-0-1/2-------2------------------|
G|---0-----0-------------0-----------------------2--------------------|
D|-2-------------2-----2-----------------------2----------------------|
A|-----------------------------0-------------0------------------------|
D|--------------------------------------------------------------------|

   D                       Bm
d|-2---2-----2-2-2h4-------2-2-2h4------------------------------------|
B|-2---2-3---2-2-2h3-3-----2-2-2h3-3-----3-2-3-2----------------------|
G|-2-2---2-2-2-------2---2-2-------2---2---2-----4-----4--------------|
D|-------4-----------4-4-----------4-4-----4---------4----------------|
A|-------------------------2-------2-------2-------2------------------|
D|-0---------0-------0------------------------------------------------|

   Em                          A
d|-4-----2-----0-4-5-4-2-----0-0-0-0-0-0------------------------------|
B|-----0-----0-------------0-----0-0-0-0-1/2-------2------------------|
G|---0-----0-------------0-----------------------2--------------------|
D|-2-------------2-----2-----------------------2----------------------|
A|-----------------------------0-------------0------------------------|
D|--------------------------------------------------------------------|

   D                       Bm
d|-2---2-----2-2-2h4-------2-2-2h4------------------------------------|
B|-2---2-3---2-2-2h3-3-----2-2-2h3-3-----3-2-3-2----------------------|
G|-2-2---2-2-2-------2---2-2-------2---2---2-----4-----4--------------|
D|-------4-----------4-4-----------4-4-----4---------4----------------|
A|-------------------------2-------2-------2-------2------------------|
D|-0---------0-------0------------------------------------------------|

   Em                          A
d|-4-----2-----0-4-5-4-2-----0-0-0-0-0-0------------------------------|
B|-----0-----0-------------0-----0-0-0-0-1/2-------2------------------|
G|---0-----0-------------0-----------------------2--------------------|
D|-2-------------2-----2-----------------------2----------------------|
A|-----------------------------0-------------0------------------------|
D|--------------------------------------------------------------------|
comments
We did not receive enough feedback on this tab! Please rate:
print report bad tab
1 2 3 4 5
I want to post or [tab]
guest
You may want to rate the tab now too:
select rating
Please do not post tabs as comments. Select "correction" instead!