Oops, an error
Loading. Please wait.

Fail Tab

3,755 views 6 this week
no commentswrite comment
1 2 3 4 5
accurate
x 1
Autoscroll
+/-
esc
set tempo
stop
Contributor
Difficulty
Tuning
intermediate
C G C F A D
WARNING: You are trying to view
                                    content from Ultimate-Guitar.com
                                    in an unauthorized application,
                                    which is prohibited.

                                    Please use an official Ultimate
                                    Guitar Tabs application for iPhone,
                                    iPad or Android to access legitimate
                                    chords, guitar, bass, and drum tabs
                                    from Ultimate-Guitar.com database.

                                    Type "ultimate guitar tabs" in Apple
                                    App Store's or Android Market's
                                    search to find the application.
Tabbed by: Joshua Garcia (joshuag523@aol.com)

Tabs for the song: Fail by Get Scared
Please rate and let me know if you have any corrections. Thank you.

I know what you're thinking, and yes. This CAN be played in C#, but after 
watching some live videos of this, I've observed they play it in Drop C. 
Notice how he switches to the first fret in this video. This can only be 
done in Drop C: http://www.youtube.com/watch?v=osurE5gr09w


Tuning: Drop C (C G C F A D)


Intro
Guitar 1:
D||---------------------------------------------|
A||---------------------------------------------|
F||---------------------------------------------|
C||---------------------------------------------|
G||-----------------------------------2---------|
C||--/14--\---2-5-4-5-2-5-4-1-2-5-4-2---5-4-1---|


D||----------------------------------------|
A||----------------------------------------|
F||----------------------------------------|
C||---------------------------1--1--2--4---|
G||---------------------------1--1--2--4---|
C||--2-5-4-5-2-5-4-1-2-5-4-2--1--1--2--4---|



Verse
Guitar 1:
D||----------------------------------------|---------------------------------------------|
A||----------------------------------------|---------------------------------------------|
F||----------------------------------------|---------------------------------------------|
C||----------------------------------------|---------------------------------------------|
G||----------------------------------------|---------------------------------------------|
C||--2\---1-2---4-5-2--10----9----7-9-4-5--|--2---1-2---4-5-2--10--10--10--10--9\-2-4-5--|


Guitar 1:
D||--------------------------|
A||--8--8--8--8--8--8--8--8--|
F||--9--9--9--9--9--9--9--9--| x3
C||--------------------------|
G||--------------------------|
C||--------------------------|


D||--------------------------|
A||--8--8--8--8--------------|
F||--9--9--9--9--------------|
C||--------------------------|
G||--------------------------|
C||--------------9\--2-4-5---|


Guitar 2:
D||---------------------------------------|-------------------------------|
A||---------------------------------------|-------------------------------|
F||---------------------------------------|-------------------------------|
C||--2---1-2---4-5-2--10----9----7-9-4-5--|--2---1-2---4-5-2--5--5--5--5--|
G||---------------------------------------|-------------------------------|
C||---------------------------------------|-------------------------------|



Pre-Chorus
Guitar 1:
D||---------------------------------|
A||--8-8-8-8-8----------------------|
F||--9-9-9-9-9----------------------|
C||--------------------5-5-5-5-7\---|
G||--------------------3-3-3-3-5\---|
C||-------------4-5-2---------------|


Guitar 2:
D||---------------------------------|
A||---------------------------------|
F||---------------------------------|
C||--9-9-9-9-9---------5-5-5-5-7\---|
G||--7-7-7-7-7---------3-3-3-3-5\---|
C||-------------4-5-2---------------|



Chorus
Guitar 1:
D||-------------------------------------------------------------------|
A||-------------------------------------------------------------------|
F||------------------5-5-5-5-5-5-5-5----------------------------------|
C||--2-2-2-2-2-2-2-2-5-5-5-5-5-5-5-5-5-5-5-5-5-5-5-5-7-7-7-7-7-7-7-7--|
G||--2-2-2-2-2-2-2-2-3-3-3-3-3-3-3-3-5-5-5-5-5-5-5-5-7-7-7-7-7-7-7-7--|
C||--2-2-2-2-2-2-2-2-----------------5-5-5-5-5-5-5-5-7-7-7-7-7-7-7-7--|


D||----------------------------------------------------------------------|
A||----------------------------------------------------------------------|
F||------------------5-5-5-5-5-5-5-5-------------------------------------|
C||--2-2-2-2-2-2-2-2-5-5-5-5-5-5-5-5-5-5-5-5-5-5-5-5-9-9-9-9-------------|
G||--2-2-2-2-2-2-2-2-3-3-3-3-3-3-3-3-5-5-5-5-5-5-5-5-9-9-9-9-------------|
C||--2-2-2-2-2-2-2-2-----------------5-5-5-5-5-5-5-5-9-9-9-9--9\--2-4-5--|


Guitar 2:
D||---------------------------------------------------------------------------|
A||---------------------------------------------------------------------------|
F||--9-9-9-9-9-9-9-9-12-12-12-12-12-12-12-12-7-7-7-7-7-7-7-7-5-5-5-5-5-5-5-5--|
C||--x-x-x-x-x-x-x-x-x--x--x--x--x--x--x--x--x-x-x-x-x-x-x-x-x-x-x-x-x-x-x-x--|
G||--7-7-7-7-7-7-7-7-10-10-10-10-10-10-10-10-5-5-5-5-5-5-5-5-3-3-3-3-3-3-3-3--|
C||---------------------------------------------------------------------------|


D||-------------------------------------------------------------------------------|
A||-------------------------------------------------------------------------------|
F||--9-9-9-9-9-9-9-9-12-12-12-12-12-12-12-7-7-7-7-7-7-7-7-11-11-11-11-------------|
C||--x-x-x-x-x-x-x-x-x--x--x--x--x--x--x--x-x-x-x-x-x-x-x-x--x--x--x--------------|
G||--7-7-7-7-7-7-7-7-10-10-10-10-10-10-10-5-5-5-5-5-5-5-5-9--9--9--9--------------|
C||--------------------------------------------------------------------9\--2-4-5--|



Pre-Verse
Guitar 1:
D||----------------------------------------|
A||----------------------------------------|
F||----------------------------------------|
C||---------------------------1--1--2--4---|
G||---------------------------1--1--2--4---|
C||--2-5-4-5-2-5-4-1-2-5-4-2--1--1--2--4---|



Verse
Guitar 1:
D||---------------------------------------------|-----------------------------------------------|
A||---------------------------------------------|-----------------------------------------------|
F||-5---4-5---/7-8-5--12/13----12----10-12-7-8--|--5---4-5---/7-8-5--13--13--13--13--12\--------|
C||---------------------------------------------|-----------------------------------------------|
G||---------------------------------------------|-----------------------------------------------|
C||---------------------------------------------|----------------------------------------2-4-5--|


D||--------------------------------------------|-------------------------------------------------|
A||--------------------------------------------|-------------------------------------------------|
F||5---4-5---/7-8-5--12/13----12----10-12-7-8--|--5---4-5---/7-8-5--12--13--12--13--10--12--7--8-|
C||--------------------------------------------|-------------------------------------------------|
G||--------------------------------------------|-------------------------------------------------|
C||--------------------------------------------|-------------------------------------------------|


Guitar 2:
D||---------------------------------------|---------------------------------------------|
A||---------------------------------------|---------------------------------------------|
F||---------------------------------------|---------------------------------------------|
C||---------------------------------------|---------------------------------------------|
G||---------------------------------------|---------------------------------------------|
C||--2---1-2---4-5-2--10----9----7-9-4-5--|--2---1-2---4-5-2--10--10--10--10--9\-2-4-5--|


D||--------------------------|
A||--8--8--8--8--8--8--8--8--|
F||--9--9--9--9--9--9--9--9--| x3
C||--------------------------|
G||--------------------------|
C||--------------------------|


D||------------------------|
A||--8--8--8--8------------|
F||--9--9--9--9------------|
C||------------------------|
G||------------------------|
C||--------------7-9-7-5---|



Pre-Chorus
Guitar 1:
D||------------------------------------------|
A||--8-8-8-8-8-------------------------------|
F||--9-9-9-9-9-------------------------------|
C||--------------------5-5-5-5-7\---x-x-x-x--|
G||--------------------3-3-3-3-5\---x-x-x-x--|
C||-------------4-5-2---------------x-x-x-x--|


Guitar 2:
D||------------------------------------------|
A||------------------------------------------|
F||------------------------------------------|
C||--9-9-9-9-9---------5-5-5-5-7\---x-x-x-x--|
G||--7-7-7-7-7---------3-3-3-3-5\---x-x-x-x--|
C||-------------4-5-2---------------x-x-x-x--|



Chorus
Guitar 1:
D||-------------------------------------------------------------------|
A||-------------------------------------------------------------------|
F||------------------5-5-5-5-5-5-5-5----------------------------------|
C||--2-2-2-2-2-2-2-2-5-5-5-5-5-5-5-5-5-5-5-5-5-5-5-5-7-7-7-7-7-7-7-7--|
G||--2-2-2-2-2-2-2-2-3-3-3-3-3-3-3-3-5-5-5-5-5-5-5-5-7-7-7-7-7-7-7-7--|
C||--2-2-2-2-2-2-2-2-----------------5-5-5-5-5-5-5-5-7-7-7-7-7-7-7-7--|


D||----------------------------------------------------------------------|
A||----------------------------------------------------------------------|
F||------------------5-5-5-5-5-5-5-5-------------------------------------|
C||--2-2-2-2-2-2-2-2-5-5-5-5-5-5-5-5-5-5-5-5-5-5-5-5-9-9-9-9-------------|
G||--2-2-2-2-2-2-2-2-3-3-3-3-3-3-3-3-5-5-5-5-5-5-5-5-9-9-9-9-------------|
C||--2-2-2-2-2-2-2-2-----------------5-5-5-5-5-5-5-5-9-9-9-9--9\--2-4-5--|


Guitar 2:
D||---------------------------------------------------------------------------|
A||---------------------------------------------------------------------------|
F||--9-9-9-9-9-9-9-9-12-12-12-12-12-12-12-12-7-7-7-7-7-7-7-7-5-5-5-5-5-5-5-5--|
C||--x-x-x-x-x-x-x-x-x--x--x--x--x--x--x--x--x-x-x-x-x-x-x-x-x-x-x-x-x-x-x-x--|
G||--7-7-7-7-7-7-7-7-10-10-10-10-10-10-10-10-5-5-5-5-5-5-5-5-3-3-3-3-3-3-3-3--|
C||---------------------------------------------------------------------------|


D||-------------------------------------------------------------------------------|
A||-------------------------------------------------------------------------------|
F||--9-9-9-9-9-9-9-9-12-12-12-12-12-12-12-7-7-7-7-7-7-7-7-11-11-11-11-------------|
C||--x-x-x-x-x-x-x-x-x--x--x--x--x--x--x--x-x-x-x-x-x-x-x-x--x--x--x--------------|
G||--7-7-7-7-7-7-7-7-10-10-10-10-10-10-10-5-5-5-5-5-5-5-5-9--9--9--9--------------|
C||--------------------------------------------------------------------9\--2-4-5--|



Bridge
Guitar 1:
D||-------------------------------------------------------------------------------------------|
A||-------------------------------------------------------------------------------------------|
F||--99999999999999999999999999-77777777777777777777777777-1212121212121212-1111111111111111--|
C||--xxxxxxxxxxxxxxxxxxxxxxxxxx-xxxxxxxxxxxxxxxxxxxxxxxxxx-x-x-x-x-x-x-x-x--x-x-x-x-x-x-x-x---|
G||--77777777777777777777777777-55555555555555555555555555-1010101010101010-9-9-9-9-9-9-9-9---|
C||-------------------------------------------------------------------------------------------|


D||----------------------------------------------------------------------------------|
A||----------------------------------------------------------------------------------|
F||--1212121212121212121212121212121212121212121212121212-14141414-1212-1010101010---|
C||--x-x-x-x-x-x-x-x-x-x-x-x-x-x-x-x-x-x-x-x-x-x-x-x-x-x--x-x-x-x--x-x--x-x-x-x-x----|
G||--1010101010101010101010101010101010101010101010101010-12121212-1010-9-9-9-9-9----|
C||----------------------------------------------------------------------------------|


D||-------------------------------|
A||-------------------------------|
F||--99-8888888888888-------------|
C||--xx-xxxxxxxxxxxxx-------------|
G||--77-6666666666666-------------|
C||----------------------5~---4~--|



Guitar 1:
D||---------------------------------------|---------------------------------------------|
A||---------------------------------------|---------------------------------------------|
F||---------------------------------------|---------------------------------------------|
C||---------------------------------------|------------------------------------x-x-x-x--|
G||---------------------------------------|------------------------------------x-x-x-x--|
C||--2---1-2---4-5-2--10----9----7-9-4-5--|--2---1-2---4-5-2--10\--------------x-x-x-x--|



Chorus
Guitar 1:
D||-------------------------------------------------------------------|
A||-------------------------------------------------------------------|
F||------------------5-5-5-5-5-5-5-5----------------------------------|
C||--2-2-2-2-2-2-2-2-5-5-5-5-5-5-5-5-5-5-5-5-5-5-5-5-7-7-7-7-7-7-7-7--|
G||--2-2-2-2-2-2-2-2-3-3-3-3-3-3-3-3-5-5-5-5-5-5-5-5-7-7-7-7-7-7-7-7--|
C||--2-2-2-2-2-2-2-2-----------------5-5-5-5-5-5-5-5-7-7-7-7-7-7-7-7--|


D||-------------------------------------------------------------------|
A||-------------------------------------------------------------------|
F||------------------5-5-5-5-5-5-5-5----------------------------------|
C||--2-2-2-2-2-2-2-2-5-5-5-5-5-5-5-5-5-5-5-5-5-5-5-5-9-9-9-9-9-9-9-9--|
G||--2-2-2-2-2-2-2-2-3-3-3-3-3-3-3-3-5-5-5-5-5-5-5-5-9-9-9-9-9-9-9-9--|
C||--2-2-2-2-2-2-2-2-----------------5-5-5-5-5-5-5-5-9-9-9-9-9-9-9-9--|


Guitar 2:
D||---------------------------------------------------------------------------|
A||---------------------------------------------------------------------------|
F||--9-9-9-9-9-9-9-9-12-12-12-12-12-12-12-12-7-7-7-7-7-7-7-7-5-5-5-5-5-5-5-5--|
C||--x-x-x-x-x-x-x-x-x--x--x--x--x--x--x--x--x-x-x-x-x-x-x-x-x-x-x-x-x-x-x-x--|
G||--7-7-7-7-7-7-7-7-10-10-10-10-10-10-10-10-5-5-5-5-5-5-5-5-3-3-3-3-3-3-3-3--|
C||---------------------------------------------------------------------------|


D||-----------------------------------------------------------------------------------|
A||-----------------------------------------------------------------------------------|
F||--9-9-9-9-9-9-9-9-12-12-12-12-12-12-12-12-7-7-7-7-7-7-7-7-11-11-11-11-11-11-11-11--|
C||--x-x-x-x-x-x-x-x-x--x--x--x--x--x--x--x--x-x-x-x-x-x-x-x-x--x--x--x--x--x--x--x---|
G||--7-7-7-7-7-7-7-7-10-10-10-10-10-10-10-10-5-5-5-5-5-5-5-5-9--9--9--9--9--9--9--9---|
C||-----------------------------------------------------------------------------------|




Guitar 1:
D||----------------------------------------------------------------------|
A||----------------------------------------------------------------------|
F||--9999999999999999-12121212121212121212121212121212-7777777777777777--|
C||--xxxxxxxxxxxxxxxx-x-x-x-x-x-x-x-x-x-x-x-x-x-x-x-x--xxxxxxxxxxxxxxxx--|
G||--7777777777777777-10101010101010101010101010101010-5555555555555555--|
C||----------------------------------------------------------------------|


Guitar 1:
D||-------------------------------------|
A||-------------------------------------|
F||--1212121212121212-1111111111111111--|
C||--x-x-x-x-x-x-x-x--x-x-x-x-x-x-x-x---|
G||--1010101010101010-9-9-9-9-9-9-9-9---|
C||-------------------------------------|


Guitar 2:
D||--------------------|
A||--------------------|
F||--7777777777777777--|
C||--xxxxxxxxxxxxxxxx--|
G||--5555555555555555--|
C||--------------------|


Guitar 1:
D||----------------------------------------------------------------------|
A||----------------------------------------------------------------------|
F||--9999999999999999-12121212121212121212121212121212-7777777777777777--|
C||--xxxxxxxxxxxxxxxx-x-x-x-x-x-x-x-x-x-x-x-x-x-x-x-x--xxxxxxxxxxxxxxxx--|
G||--7777777777777777-10101010101010101010101010101010-5555555555555555--|
C||----------------------------------------------------------------------|


Guitar 2:
D||--------------------------------------------------------------------------------------|
A||--------------------------------------------------------------------------------------|
F||--9999999999999999-12121212121212121212121212121212-12121212121212121212121212121212--|
C||--xxxxxxxxxxxxxxxx-x-x-x-x-x-x-x-x-x-x-x-x-x-x-x-x--x-x-x-x-x-x-x-x-x-x-x-x-x-x-x-x---|
G||--7777777777777777-10101010101010101010101010101010-10101010101010101010101010101010--|
C||--------------------------------------------------------------------------------------|


Guitar 1/2:
D||--------------------------------|
A||--------------------------------|
F||--1111111111111111111111111111--|
C||--x-x-x-x-x-x-x-x-x-x-x-x-x-x---|
G||--9-9-9-9-9-9-9-9-9-9-9-9-9-9---|
C||--------------------------------|



Outro
Guitar 1:
D||---------------------------------------------|
A||---------------------------------------------|
F||---------------------------------------------|
C||---------------------------------------------|
G||-----------------------------------2---------|
C||--/14--\---2-5-4-5-2-5-4-1-2-5-4-2---5-4-1---|


D||-------------------------------------------|
A||-------------------------------------------|
F||-------------------------------------------|
C||---------------------------1--1--2--4--2\--|
G||---------------------------1--1--2--4--2\--|
C||--2-5-4-5-2-5-4-1-2-5-4-2--1--1--2--4--2\--|





Tablature Legend
----------------
 h   hammer-on
 p   pull-off
 b   bend
 pb  pre-bend
 r   release bend
 ~   hold / vibrato
 .   palm mute
 /   slide up
 \   slide down
 *   pinch harmonic
 '   natural harmonic
 x   mute note
 T   tap
comments
We did not receive enough feedback on this tab! Please rate:
print report bad tab
1 2 3 4 5
I want to post or [tab]
guest
You may want to rate the tab now too:
select rating
Please do not post tabs as comments. Select "correction" instead!