Oops, an error
Loading. Please wait.

Mess Bass Tab

273 views 1 this week
no commentswrite comment
1 2 3 4 5
excellent!
x 1
Autoscroll
+/-
esc
set tempo
stop
Contributor
Tuning
D A D G B E
WARNING: You are trying to view
                                    content from Ultimate-Guitar.com
                                    in an unauthorized application,
                                    which is prohibited.

                                    Please use an official Ultimate
                                    Guitar Tabs application for iPhone,
                                    iPad or Android to access legitimate
                                    chords, guitar, bass, and drum tabs
                                    from Ultimate-Guitar.com database.

                                    Type "ultimate guitar tabs" in Apple
                                    App Store's or Android Market's
                                    search to find the application.
Intro 0:12
G|------------------------------------------------------------------------|
D|------------------------------------------------------------------------|
A|-----------------------------------2---2---2------2-2---2---2-2---2-0-2-|
D|-2---2---2------2-2---2---2-2-------------------------------------------|

G|------------------------------------------------------------------------|
D|------------------------------------------------------------------------|
A|-4---4---4------2-2---2---2-2------0---0---0------0-0---0---0-----0---2-|
D|--------------------------------------------------------------2---------|

Verse 0:27
G|------------------------------------------------------------------------|
D|------------------------------------------------------------------------|
A|-------------------------------------4--------4--------4-4------4--4--4-|
D|-2--------2--------2-2------2-------------------------------------------|
0:35
G|------------------------------------------------------------------------|
D|------------------------------------------------------------------------|
A|-0--------0--------0-0------0--------2-2------2--------2-2---2--2-/9--7-|
D|------------------------------------------------------------------------|
0:42
G|------------------------------------------------------------------------|
D|------------------------------------------------------------------------|
A|----------------------------2-----0--4--------4--------4-4---4--4--6--7-|
D|-2--------2--------2-2---2-----2----------------------------------------|

0:49
G|------------------------------------------------------------------------|
D|------------------------------------------------------------------------|
A|-0--------0--------0-0---0--0-7h9p7--2--------2--------2-2---2--2-/7--2-|
D|------------------------------------------------------------------------|

Pre Chorus0:57
G|-----------------------------------------------------|
D|-----------------------------------------------------|
A|-----------------------------------------------------|
D|-6--------6--------7--------7--------7-7---7---7-7---|

Chorus 1:03
G|------------------------------------------------------------------------|
D|------------------------------------------------------------------------|
A|-----------------------------------2---2---2------2-2---2---2-2---x-x-x-|
D|-2---2---2------2-2---2---2-2-------------------------------------------|

G|------------------------------------------------------------------------|
D|------------------------------------------------------------------------|
A|-4---4---4------2-2---2---2-2-------------------------------------------|
D|-----------------------------------7---7---7------7-7---7---7-7\--------|

1:18
G|------------------------------------------------------------------------|
D|------------------------------------------------------------------------|
A|----------------2-2---2---2-2------0---0---0------0-0---0---0-0---------|
D|-2-------2--------------------------------------------------------------|
A|----------------2-2---2---2-2------0---0---0------0-0---0---0-0---------|
 *if you have a 5 string tune down to A and play bottom line*

Verse 1:26
G|------------------------------------------------------------------------|
D|------------------------------------------------------------------------|
A|-----------------------------------4--------4-----4-4---4---4-4---------|
D|-2-------2------2-2---2---2-2-------------------------------------6-4-2-|

G|--------------------------------------------------------------------------|
D|--------------------------------------------------------------------------|
A|-0-------0------0-0---0---0-0-7h9p7--2-------2------2-2---2---2-2---2-6-7-|
D|--------------------------------------------------------------------------|

1:41
G|------------------------------------------------------------------------|
D|------------------------------------------------------------------------|
A|-------------------------------------4~------4~-----4-4~--4-------------|
D|-2~------2~-----2-2~--2~--2-2~--------------------------------6-7-6-4-2-|
A|-------------------------------------4~------4~-----4-4~--4-------------|

G|------------------------------------------------------------------------|
D|------------------------------------------------------------------------|
A|-0-------0------0-0---0--------------2-------2------2-2---2-------------|
D|--------------------------6-7-6-4-2---------------------------6-7-6-4-2-|
A|----------------0-0---0--------------2-------2------2-2---2-------------|
Pre Chorus
G|-----------------------------------------------------|
D|-----------------------------------------------------|
A|-----------------------------------------------------|
D|-6--------6--------7--------7--------7-7---7---7-7---|

Chorus 2:01
G|------------------------------------------------------------------------|
D|------------------------------------------------------------------------|
A|-----------------------------------2---2---2------2-2---2---2-2---x-x-x-|
D|-2---2---2------2-2---2---2-2-------------------------------------------|

G|------------------------------------------------------------------------|
D|------------------------------------------------------------------------|
A|-4---4---4------2-2---2---2-2-------------------------------------------|
D|-----------------------------------7---7---7------7-7-7-7-7---7-7-7-7-7-|

2:16
G|------------------------------------------------------------------------|
D|------------------------------------------------------------------------|
A|-----------------------------------2---2---2------2-2---2---2-2---x-x-x-|
D|-2---2---2------2-2---2---2-2-------------------------------------------|

G|------------------------------------------------------------------------|
D|------------------------------------------------------------------------|
A|-4---4---4------2-2---2---2-2-------------------------------------------|
D|-----------------------------------7---7---7------7-7---7---7-7---------|

G|-------------------------|
D|-------------------------|
A|-------------------------|
D|-7-7-7-7-7-7-7-7-7-7-7-7-|

2:34
G|------------------------------------------------------------------------|
D|------------------------------------------------------------------------|
A|-4-------/16-------7-------/19-------0--0--0-0--0------2--2--2--2-------|
D|-------------------------------------------------------------------7--6-|

G|-------------------------------------------------|
D|-------------------------------------------------|
A|-4--4--4-/16--16-16-16-----7--7--7-/19--18-16-14-|
D|-------------------------------------------------|

G|-----------------------------------------------------|
D|-----------------------------------------------------|
A|-0--0--0--0--0--0--2--2--2--2--2--2--/14(x12)--------|
D|------------------------------------------------2~---|

Break

3:05
G|--------------------------------------------------------------------------------|
D|--------------------------------------------------------------------------------|
A|-------------------------------------------2---2---2------2-2---2---2-2---x-x-x-|
D|-7\------2---2---2------2-2---2---2-2-------------------------------------------|
A|-------------------------------------------2---2---2------2-2---2---2-2---x-x-x-|

G|------------------------------------------------------------------------|
D|------------------------------------------------------------------------|
A|-4---4---4------2-2---2---2-2-------------------------------------------|
D|-----------------------------------7---7---7------7-7---7---7-7---7\----|
A|-4---4---4------2-2---2---2-2------0---0---0------0-0---0---0-0---------|

3:22
G|------------------------------------------------------------------------|
D|------------------------------------------------------------------------|
A|----------------------------------0--2--2--2--2--2--2--2--6--7----------|
D|-2--2--2--2--2--2--2--2--2--2--2--------------------------------9--7--6-|

G|-----------------------------------------------------------------------------------|
D|-----------------------------------------------------------------------------------|
A|-4--4--4--4--4--4--2--2--2--2--2--2--0-0-0-0-0-0--0--0--0----0--0--0--0(x12)-------|
D|-------------------------------------------------------------------------------2~--|
A|-------------------------------------------------------------0--0--0--0(x12)-------|
Tabbed by Dave Vucko
comments
We did not receive enough feedback on this tab! Please rate:
print report bad tab
1 2 3 4 5
I want to post or [tab]
guest
You may want to rate the tab now too:
select rating
Please do not post tabs as comments. Select "correction" instead!