Oops, an error
Loading. Please wait.

A Found Interest In Massachusetts Tab

1,310 views 3 this week
no commentswrite comment
1 2 3 4 5
please rate
add to favorites launch autoscroll
font size
0
reset
Autoscroll
+/-
esc
set tempo
stop
WARNING: You are trying to view
                                    content from Ultimate-Guitar.com
                                    in an unauthorized application,
                                    which is prohibited.

                                    Please use an official Ultimate
                                    Guitar Tabs application for iPhone,
                                    iPad or Android to access legitimate
                                    chords, guitar, bass, and drum tabs
                                    from Ultimate-Guitar.com database.

                                    Type "ultimate guitar tabs" in Apple
                                    App Store's or Android Market's
                                    search to find the application.
A NEW FOUND INTEREST IN MASSACHUSETTS - The Get Up Kids


By Jim kensarcade@hotmail.com

Intro: 
guitar 1: 
------------------------------------------------
------7-----------------------7-----------7/8-7-
--7-------7--7/9-7-----7------7--7--------------
--------------------------5------5---5----------
-7--7---7--7---------7----7----------7----------
------------------------------------------------

then: 
guitar 1: 
D 
-5----------------------------------------------
-7----------------------------------------------
-7----------------------------------------------
-7----------------------------------------------
-5----------------------------------------------
------------------------------------------------

guitar 2 (this guitar blends with guitar 1 in the mix): 
--------------------------------------
--------------------------------------
-7-7-7---7----------------------------
-7-5-4---5----------------------------
-5-5-5---5----------------------------
--------------------------------------

guitar 3: 
--------------------------------
--------------------------------
-7-9-11--12\11-12\11-12\11-11---
--------------------------------
-5-7--9--10\-9-10\-9-10\-9--9---
--------------------------------

then: 
guitar 1: 
--------------------------------------------------------
-------7---------------------------7-------------7/8-7--
--7------7---7-----7/9-7----7------7---7----------------
----5------5---5---------------5-------5---5------------
-7---7-----------7---------7-----7-----------7----------
--------------------------------------------------------

guitar 2: 
-----------------------------------
-----------------------------------
-7---------------------------------
-4---------------------------------
-5---------------------------------
-----------------------------------

guitar 3: 
-----------------------------------
-----------------------------------
-9---------------------------------
-----------------------------------
-7---------------------------------
-----------------------------------

then: 
guitar 1: 
-----------------------------------
-7-7-------------------------------
-7-7-14-14-14-14-------------------
-7-7-------------------------------
-5-5-12-12-12-12-------------------
-----------------------------------

guitar 2: 
-----------------------------------
-----------------------------------
-7-7-7---7-------------------------
-7-5-4---5-------------------------
-5-5-5---5-------------------------
-----------------------------------

guitar 3: 
-----------------------------------
-----------------------------------
-7-9-11--12\11-12\11-12\11-11-11---
-----------------------------------
-5-7--9--10\-9-10\-9-10\-9--9--9---
-----------------------------------

then (drums in): 
guitar 1: 
---------------------------------
-------3p2--------5p3----2-------
---2-------2-----------------2---
---------------------------------
-2--2-----------0------0---------
---------------------------------

guitar 2 (we will now note guitar 3 as "guitar 2"): 
----------------------------------
----------------------------------
-14--------------9----------------
----------------------------------
-12--------------7----------------
----------------------------------

then: 
guitar 1: 
----------------------------------
----------------------------------
---7---7/9-7/9--------------------
-0---0------------7-5p4-4h5p4-----
----------------------------------
----------------------------------

guitar 2: 
----------------------------------
----------------------------------
-11-11-11-11/12\11---7-7-7-7-6-6--
----------------------------------
--9--9--9--9/10\-9---5-5-5-5-4-4--
----------------------------------

then: 
guitar 1: 
---------------------------------
-------3p2--------5p3----2-------
---2-------2-----------------2---
---------------------------------
-2--2-----------0------0---------
---------------------------------

guitar 2: 
----------------------------------
----------------------------------
-14--------------9----------------
----------------------------------
-12--------------7----------------
----------------------------------

then: 
guitar 1: 
----------------------------------
----------------------------------
---7---7/9-7/9--------------------
-0---0------------7-5p4-4h5p4-----
----------------------------------
----------------------------------

guitar 2: 
----------------------------------
----------------------------------
-11-11-11-11/12\11---7-7-7-7-6-6--
----------------------------------
--9--9--9--9/10\-9---5-5-5-5-4-4--
----------------------------------

then: 
guitar 1: 
---------------------------------
-------3p2--------5p3----2-------
---2-------2-----------------2---
---------------------------------
-2--2-----------0------0---------
---------------------------------

guitar 2: 
----------------------------------
----------------------------------
-14--------------9----------------
----------------------------------
-12--------------7----------------
----------------------------------

then: 
guitar 1: 
----------------------------------
----------------------------------
---7---7/9-7/9--------------------
-0---0---------------7-5p4-4h5p4--
----------------------------------
----------------------------------

guitar 2: 
----------------------------------
----------------------------------
-11-11-11-11/12\11---7-7-7-7-6-6--
----------------------------------
--9--9--9--9/10\-9---5-5-5-5-4-4--
----------------------------------

then: 
guitar 1: 
---------------------------------
-------3p2--------5p3----2-------
---2-------2-----------------2---
---------------------------------
-2--2-----------0------0---------
---------------------------------

guitar 2: 
----------------------------------
----------------------------------
-14--------------9----------------
----------------------------------
-12--------------7----------------
----------------------------------

Verse: 
guitar 1 (this is actually another guitar, but it can be played by guitar 1): 
-----------------------------------------------------
-----------------------------------------------------
-----------------------------------------------------
-0---------------------------------------------------
---------5-4-7-5-4-5p4-0----5-5-7-9-10-9-7-----------
-----------------------------------------------------

then: 
guitar 1: 
--------------------------------------------------------
-------7---------------------------7-------------7/8-7--
--7------7---7-----7/9-7----7------7---7----------------
----5------5---5---------------5-------5---5------------
-7----7-----------7---------7-----7-----------7---------
--------------------------------------------------------

then: 
guitar 1: 
-------------------------
-------------------------
-11--------7-------------
-------------------------
--9--------5-------------
-------------------------

guitar 2: 
-------------------------
-------------------------
-7-7-9-9-11-11-12\11-9---
-------------------------
-5-5-7-7--9--9-10\-9-7---
-------------------------

then: 
guitar 1: 
--------------------------------------------------------
-------7---------------------------7-------------7/8-7--
--7------7---7-----7/9-7----7------7---7----------------
----5------5---5---------------5-------5---5------------
-7----7-----------7---------7-----7-----------7---------
--------------------------------------------------------

then: 
guitar 1: 
--------------------------------
--------------------------------
-11--7--14--14------------------
--------------------------------
--9--5--12--12------------------
--------------------------------

guitar 2: 
------------------(cool feeback)-
---------------------------------
--7--9--11--12-------------------
---------------------------------
--5--7---9--10-------------------
---------------------------------

Chorus(?): 
guitar 1: 
----------------------------5----------------------------
----------------------------7----------------------------
-7-7-7-7-6--9-9-9-9-7--7-----------14\12-12\11-11/12\11--
----------------------------7----------------------------
-5-5-5-5-4--7-7-7-7-5--5-----------12\10-10\-9--9/10\-9--
---------------------------------------------------------

guitar 2: 
-------------------------------------------------------
-------------------------------------------------------
-14-14-14---9-9-9-9----11-11-11-11/12\11--7-7-7-7-6-6--
-------------------------------------------------------
-12-12-12---7-7-7-7-----9--9--9--9/10\-9--5-5-5-5-4-4--
-------------------------------------------------------

guitar 1: 
----------------------------5---------------------------
----------------------------7---------------------------
-7-7-7-7-6--9-9-9-9-7--7----------14\12-12\11-11/12\11--
----------------------------7---------------------------
-5-5-5-5-4--7-7-7-7-5--5----------12\10-10\-9--9/10\-9--
--------------------------------------------------------

guitar 2: 
----------------------------------------------------------
----------------------------------------------------------
-14-14-14---9-9-9-9----11-11-11-11-/12\11---7-7-7-7-6-6---
----------------------------------------------------------
-12-12-12---7-7-7-7-----9--9--9--9-/10\-9---5-5-5-5-4-4---
----------------------------------------------------------

guitar 1: 
----------------------------5-----------------------------
----------------------------7-----------------------------
-7-7-7-7-6--9-9-9-9-7--7-----------14\12-12\11-11/12\11---
----------------------------7-----------------------------
-5-5-5-5-4--7-7-7-7-5--5----------12\10-10\-9--9/-10\-9---
----------------------------------------------------------

guitar 2: 
----------------------------------------------------------
----------------------------------------------------------
-14-14-14---9-9-9-9----11-11-11-11/12\11-----7-7-7-7-6-6--
----------------------------------------------------------
-12-12-12---7-7-7-7-----9--9---9--9-/10\-9---5-5-5-5-4-4--
----------------------------------------------------------

guitar 1: 
-----------------------
-----------------------
-7-7-7-7-6--9-9-9-9-7--
-----------------------
-5-5-5-5-4--7-7-7-7-5--
-----------------------

guitar 2: 
---------------------
---------------------
-14-14-14---9-9-9-9--
---------------------
-12-12-12---7-7-7-7--
---------------------

Bridge: 
guitar 1: 
D5--------------------------------------G 
------------------------------------------3--
------------------------------------------3--
-7--7--4-6---7--7--4-6---7--7--4-6--0--------
-7--7--------7--7--------7--7--------0-------
-5--5--2-4---5--5--2-4---5--5--2-4--2--------
------------------------------------------3--

guitar 2: 
------------------------------------------3--
------------------------------------------3--
-7--7--7-6---7--7--7-6---7--7--7-6--0--------
-7--7--------7--7--------7--7-------0--------
-5--5--5-4---5--5--5-4---5--5--5-4--2--------
------------------------------------------3--

then: 
guitar 1: 
-----------------------------
-----------------------------
-12-11-11/12-12\11-11\9-9----
-----------------------------
-10--9--9/-10-10\-9--9\-7-7--
-----------------------------

guitar 2: 
G 
-3-------------------------------------------
-3-------------------------------------------
-0-------------------------------------------
-0---(pick-scrapes)--------------------------
-2-------------------------------------------
-3-------------------------------------------

guitar 1: 
-------------------------------------
-------------------------------------
-7-14-9-12\11--7-7-7-7-6--9-9-9-9-7--
-------------------------------------
-5-12-7-10\-9--5-5-5-5-4--7-7-7-7-5--
-------------------------------------

guitar 2: 
-----------3----------------------------
-----------3----------------------------
-7-11-4--0------------------------------
-----------0------9-9-9-9-7--7-7-7-7-7--
-5--9--2--2------------------7-7-7-7-7--
------------3-----7-7-7-7-5--5-5-5-5-5--

then: 
guitar 1: 
-------------------------------------
-------------------------------------
-7-14-9-12\11--7-7-7-7-6--9-9-9-9-7--
-------------------------------------
-5-12-7-10\-9--5-5-5-5-4--7-7-7-7-5--
-------------------------------------

guitar 2: 
-----------3----------------------------
-----------3----------------------------
-7-11-4--0------------------------------
-----------0------9-9-9-9-7--7-7-7-7-7--
-5--9--2-2-------------------7-7-7-7-7--
------------3-----7-7-7-7-5--5-5-5-5-5--

then: 
guitar 1: 
---------------------------------------------
---------------------------------------------
-7-7-7-7-6--9-9-9-9-7--7-7-7-7-6--9-9-9-9-7--
---------------------------------------------
-5-5-5-5-4--7-7-7-7-5--5-5-5-5-4--7-7-7-7-5--
---------------------------------------------

guitar 2: 
---------------------------------------------
---------------------------------------------
---------------------------------------------
-9-9-9-9-7--7-7-7-7-7--9-9-9-9-7--7-7-7-7-7--
------------7-7-7-7-7-------------7-7-7-7-7--
-7-7-7-7-5--5-5-5-5-5--7-7-7-7-5--5-5-5-5-5--

then: 
guitar 1: 
G--A 
-3------
-3------
-0--14--
-0------
-2--12--
-3------

guitar 2: 
-3--0--
-3--2--
-0--2--
-0--2--
-2--0--
-3-----

4/4 to 6/8 time change: 

guitar 1: 
B5-D5---G-B5-D5--G-B5-D5--G 
-----------3-----------3-----------3--
-----------3-----------3-----------3--
---4----7--0----4---7--0----4---7--0--
--4----7---0---4---7---0---4---7---0--
-2----5----2--2---5----2--2---5----2--
-----------3-----------3-----------3--

guitar 2: 
------------3------------3------------3--
------------3------------3------------3--
------------0------------0------------0--
------------0------------0------------0--
------------2------------2------------2--
------------3------------3------------3--

then: 
both guitars: 
B5-D5-G 
---------3--
---------3--
-4---7---0--
-4---7---0--
-2---5---2--
---------3--

then: 
guitar 1: 
 B5----------D5--------G------B5----------D5---------G 
-----------------------3-----------------------------3--
-----------------------3-----------------------------3--
-4-----------7---------0-------4----------7----------0--
-4-----------7---------0-------4----------7----------0--
-2-----------5---------2-------2----------5----------2--
-----------------------3-----------------------------3---

guitar 2: 
-------------------------------------------------------------
-------------------------------------------------------------
-14-12-11-14-12-11-9-11--14-12-11-14-12-11-7-7-7-7-7/9\7-----
-------------------------------------------------------------
-12-10--9--12-10--9-7--9--12-10--9--12-10--9--5-5-5-5-5/7\5--
-------------------------------------------------------------

then: 
guitar 1: 
B5----------D5---------G------B5---------D5----------G 
-----------------------3-----------------------------3--
-----------------------3-----------------------------3--
-4-----------7---------0-------4----------7----------0--
-4-----------7---------0-------4----------7----------0--
-2-----------5---------2-------2----------5----------2--
-----------------------3-----------------------------3--

guitar 2: 
------------------------------------------------------------
------------------------------------------------------------
-15-12-11-14-12-11-9-11--14-12-11-14-12-11-7----------------
------------------------------------------------------------
-13-10--9--12-10--9-7--9--12-10--9--12-10--9--5-------------
--*---------------------------------------------------------

* This octave is, most likely, a mistake. Oh, well. Nobody's perfect.
comments
We did not receive enough feedback on this tab! Please rate:
print report bad tab
1 2 3 4 5
I want to post or [tab]
guest
You may want to rate the tab now too:
select rating
Please do not post tabs as comments. Select "correction" instead!