Oops, an error
Loading. Please wait.

Close To Me Tab

ver2
ver2

Whole song

More versions @911Tabs.com
1,404 views 1 this week
no commentswrite comment
1 2 3 4 5
please rate
add to favorites launch autoscroll
font size
0
reset
Autoscroll
+/-
esc
set tempo
stop
WARNING: You are trying to view
                                    content from Ultimate-Guitar.com
                                    in an unauthorized application,
                                    which is prohibited.

                                    Please use an official Ultimate
                                    Guitar Tabs application for iPhone,
                                    iPad or Android to access legitimate
                                    chords, guitar, bass, and drum tabs
                                    from Ultimate-Guitar.com database.

                                    Type "ultimate guitar tabs" in Apple
                                    App Store's or Android Market's
                                    search to find the application.
"Close to Me"
the get up kids

Intro: (drums & hand claps) 

then: 

guitar 1 (keyboard): 

-11---14------11---12--------11----------9----
----------------------------------------------
--8----11------8-----9---------8-----------6--
----------------------------------------------
----------------------------------------------
----------------------------------------------

then: 

guitar 1 : same 

guitar 2 (piano/keyboard): 

-14-12-11-----14-12-11-----19-18-------18-----------------
---------12-----------12--------19-------19---------------
-------------------------------------------18-------------
----------------------------------------------------------
----------------------------------------------------------
----------------------------------------------------------

First Verse: 

guitar 1: 

-11---14------11---12--------11----------9----
----------------------------------------------
--8----11------8-----9---------8-----------6--
----------------------------------------------
----------------------------------------------
----------------------------------------------

guitar 2: 

-14-12-11-----14-12-11-----19-18-------18-----------------
---------12-----------12--------19-------19---------------
-------------------------------------------18-------------
----------------------------------------------------------
----------------------------------------------------------
----------------------------------------------------------

then: 

both guitars : same 

Pre-Verse 1: 

guitar 1: 

-11---------------------14-----------11------------------------12--
-------------------------------------------------------------------
--8----------------------11-----------8--------------------------9-
-------------------------------------------------------------------
-------------------------------------------------------------------
-------------------------------------------------------------------

guitar 2: 

-14----12----11---------------------14---12---11----------------
----------------------12----------------------------------12----
----------------------------------------------------------------
----------------------------------------------------------------
----------------------------------------------------------------
----------------------------------------------------------------

guitar 3 (keyboard/piano): 

-----------------------------------------------------------------
----12-11-12-----12-11-12--------------12-11-12-----12-11-12-----
------------11-----------11--------------------11-----------11---
-----------------------------------------------------------------
-----------------------------------------------------------------
-----------------------------------------------------------------

then: 

guitar 1: 

-11-----------------------------------9---
------------------------------------------
--8------------------------------------6--
------------------------------------------
------------------------------------------
------------------------------------------

guitar 2: 

-19-----------18---------------------18----------------
-------------------------19-----------------19---------
---------------------------------------------------18--
-------------------------------------------------------
-------------------------------------------------------
-------------------------------------------------------

guitar 3: 

-------------------------------------------------
-------------------------------------------------
----13-11-13-----13-11-13------------------------
----------------13-------------13-----13--11--8--
-------------------------------------------------
-------------------------------------------------

Second Verse: 

guitar 1: 

-11---14------11---12--------11----------9----
----------------------------------------------
--8----11------8-----9---------8-----------6--
----------------------------------------------
----------------------------------------------
----------------------------------------------

guitar 2: 

-14-12-11-----14-12-11-----19-18-------18-----------------
---------12-----------12--------19-------19---------------
-------------------------------------------18-------------
----------------------------------------------------------
----------------------------------------------------------
----------------------------------------------------------

then: 

both guitars : same 

First Chorus: 

guitar 2: 

-12-14-16---12-14-16--
----------------------
----------------------
----------------------
----------------------
----------------------

guitars 4 & 5 (distorted): 

E 

-0--------------0--
-0--------------0--
-1--------------1--
-2--------------2--
-2--------------2--
-0--------------0--

then: 

guitar 2: 

-19-21-23-----------19-21-23--
------------------------------
------------------------------
------------------------------
------------------------------
------------------------------

guitar 4: 

B5 

--------------------------
--------------------------
-4---------------------4--
-4---------------------4--
-2---------------------2--
--------------------------

guitar 5: 

----------------------------------------
----------------------------------------
-4-----------/8--------4------------/8--
----------------------------------------
-2-----------/6--------2------------/6--
----------------------------------------

then: 

guitar 2: 

-12-14-16---12-14-16--
----------------------
----------------------
----------------------
----------------------
----------------------

guitars 4 & 5: 

E 

-0--------------0--
-0--------------0--
-1--------------1--
-2--------------2--
-2--------------2--
-0--------------0--

then: 

guitar 2: 

-19-21-23-----------19-21-23--
------------------------------
------------------------------
------------------------------
------------------------------
------------------------------

guitar 4: 

B5 

--------------------------
--------------------------
-4---------------------4--
-4---------------------4--
-2---------------------2--
--------------------------

guitar 5: 

----------------------------------------
----------------------------------------
-4-----------/8--------4------------/8--
----------------------------------------
-2-----------/6--------2------------/6--
----------------------------------------

Pre-Verse 2: 

guitar 2: 

-----------------------------------------------------------------
----12-11-12-----12-11-12--------------12-11-12-----12-11-12-----
------------11-----------11--------------------11-----------11---
-----------------------------------------------------------------
-----------------------------------------------------------------
-----------------------------------------------------------------

guitar 3: 

-14----12----11-------------14--------12--------11-------------
----------------------12-----------------------------------12--
---------------------------------------------------------------
---------------------------------------------------------------
---------------------------------------------------------------
---------------------------------------------------------------

guitars 4 & 5: 

-----------------------------------------------------------------
-----------------------------------------------------------------
-------4----4----4----4--8--4--------------4-----4----4----4--8--
-----------------------------------------------------------------
-------2----2----2----2--6--2--------------2-----2----2----2--6--
-----------------------------------------------------------------

guitar 6: 

---------------------------------------------------------
---------------------------------------------------------
-8-8-8-8-8-8-8-8-8-8--11-8-8-8-8-8-8-8-8-8-8-8-8-8-8--9--
---------------------------------------------------------
-6-6-6-6-6-6-6-6-6-6---9-6-6-6-6-6-6-6-6-6-6-6-6-6-6--7--
---------------------------------------------------------

then: 

guitar 2: 

------------------------------------------------
------------------------------------------------
----13-11-13-----13-11-13-----------------------
----------------13-------------13----13--11--8--
------------------------------------------------
------------------------------------------------

guitar 3: 

-19------------18-----------------------18-------------------
----------------------------19------------------19-----------
--------------------------------------------------------18---
-------------------------------------------------------------
-------------------------------------------------------------
-------------------------------------------------------------

guitars 4 & 5: 

----------------------------------------F# 

-----------------------------------------2--
-----------------------------------------2--
-----------------------------------------3--
---------6---6---6---6--9------6------4-----
-----------------------------------------4--
---------4---4---4---4--7------4------2-----

guitar 6: 

---------------------------------------------------
---------------------------------------------------
-8-8-8-8-8-8-8-8-8-8-8-8-8-8-8-8--6-6-6-6-6-6-6-6--
---------------------------------------------------
-6-6-6-6-6-6-6-6-6-6-6-6-6-6-6-6--4-4-4-4-4-4-4-4--
---------------------------------------------------

then: 

guitar 2: 

-----------------------------------------------------------------
----12-11-12-----12-11-12--------------12-11-12-----12-11-12-----
------------11-----------11--------------------11-----------11---
-----------------------------------------------------------------
-----------------------------------------------------------------
-----------------------------------------------------------------

guitar 3: 

-14----12----11-------------14--------12--------11-------------
----------------------12-----------------------------------12--
---------------------------------------------------------------
---------------------------------------------------------------
---------------------------------------------------------------
---------------------------------------------------------------

guitars 4 & 5: 

-----------------------------------------------------------------
-----------------------------------------------------------------
-------4----4----4----4--8--4--------------4-----4----4----4--8--
-----------------------------------------------------------------
-------2----2----2----2--6--2--------------2-----2----2----2--6--
-----------------------------------------------------------------

guitar 6: 

---------------------------------------------------------
---------------------------------------------------------
-8-8-8-8-8-8-8-8-8-8--11-8-8-8-8-8-8-8-8-8-8-8-8-8-8--9--
---------------------------------------------------------
-6-6-6-6-6-6-6-6-6-6---9-6-6-6-6-6-6-6-6-6-6-6-6-6-6--7--
---------------------------------------------------------

then: 

guitar 2: 

-----------------------------------------------------
-----------------------------------------------------
----13-11-13-----13-11-13----------------------------
----------------13-------------13----13--11--8-------
-----------------------------------------------------
-----------------------------------------------------

guitar 3: 

-19------------18-----------------------18------------------
----------------------------19------------------19----------
--------------------------------------------------------18--
------------------------------------------------------------
------------------------------------------------------------
------------------------------------------------------------

guitars 4 & 5: 

----------------------------------------F# 

-----------------------------------------2--
-----------------------------------------2--
-----------------------------------------3--
---------6---6---6---6--9------6------4-----
-----------------------------------------4--
---------4---4---4---4--7------4------2-----

guitar 6: 

---------------------------------------------------
---------------------------------------------------
-8-8-8-8-8-8-8-8-8-8-8-8-8-8-8-8--6-6-6-6-6-6-6-6--
---------------------------------------------------
-6-6-6-6-6-6-6-6-6-6-6-6-6-6-6-6--4-4-4-4-4-4-4-4--
---------------------------------------------------

Third Verse: 

guitar 2: 

-----------------------------------------------------------------
----12-11-12-----12-11-12--------------12-11-12-----12-11-12-----
------------11-----------11--------------------11-----------11---
-----------------------------------------------------------------
-----------------------------------------------------------------
-----------------------------------------------------------------

guitar 3: 

-14----12----11-------------14--------12--------11-------------
----------------------12-----------------------------------12--
---------------------------------------------------------------
---------------------------------------------------------------
---------------------------------------------------------------
---------------------------------------------------------------

guitars 4 & 5: 

-----------------------------------------------------------------
-----------------------------------------------------------------
-------4----4----4----4--8--4--------------4-----4----4----4--8--
-----------------------------------------------------------------
-------2----2----2----2--6--2--------------2-----2----2----2--6--
-----------------------------------------------------------------

guitar 6: 

---------------------------------------------------------
---------------------------------------------------------
-8-8-8-8-8-8-8-8-8-8--11-8-8-8-8-8-8-8-8-8-8-8-8-8-8--9--
---------------------------------------------------------
-6-6-6-6-6-6-6-6-6-6---9-6-6-6-6-6-6-6-6-6-6-6-6-6-6--7--
---------------------------------------------------------

then: 

guitar 2: 

------------------------------------------------
------------------------------------------------
----13-11-13-----13-11-13-----------------------
----------------13-------------13----13--11--8--
------------------------------------------------
------------------------------------------------

guitar 3: 

-19------------18-----------------------18-------------------
----------------------------19------------------19-----------
--------------------------------------------------------18---
-------------------------------------------------------------
-------------------------------------------------------------
-------------------------------------------------------------

guitars 4 & 5: 

----------------------------------------F# 

-----------------------------------------2--
-----------------------------------------2--
-----------------------------------------3--
---------6---6---6---6--9------6------4-----
-----------------------------------------4--
---------4---4---4---4--7------4------2-----

guitar 6: 

---------------------------------------------------
---------------------------------------------------
-8-8-8-8-8-8-8-8-8-8-8-8-8-8-8-8--6-6-6-6-6-6-6-6--
---------------------------------------------------
-6-6-6-6-6-6-6-6-6-6-6-6-6-6-6-6--4-4-4-4-4-4-4-4--
---------------------------------------------------

then: 

guitar 2: 

---------------------------------------------------------------------------
------12-11-12-----12-11-12-----------12-11-12-------12-11-12--------------
------------------11-------------11-------------------11---------------11--
---------------------------------------------------------------------------
---------------------------------------------------------------------------
---------------------------------------------------------------------------

guitar 3: 

-14----12----11-------------14--------12--------11---------------
----------------------12-----------------------------------12----
-----------------------------------------------------------------
-----------------------------------------------------------------
-----------------------------------------------------------------
-----------------------------------------------------------------

guitars 4 & 5: 

-----------------------------------------------------------------
-----------------------------------------------------------------
-------4----4----4----4--8--4--------------4-----4----4----4--8--
-----------------------------------------------------------------
-------2----2----2----2--6--2--------------2-----2----2----2--6--
-----------------------------------------------------------------

guitar 6: 

---------------------------------------------------------
---------------------------------------------------------
-8-8-8-8-8-8-8-8-8-8--11-8-8-8-8-8-8-8-8-8-8-8-8-8-8--9--
---------------------------------------------------------
-6-6-6-6-6-6-6-6-6-6---9-6-6-6-6-6-6-6-6-6-6-6-6-6-6--7--
---------------------------------------------------------

then: 

guitar 2: 

------------------------------------------------
------------------------------------------------
----13-11-13-----13-11-13-----------------------
----------------13-------------13----13--11--8--
------------------------------------------------
------------------------------------------------

guitar 3: 

-19------------18-----------------------18-------------------
----------------------------19------------------19-----------
--------------------------------------------------------18---
-------------------------------------------------------------
-------------------------------------------------------------
-------------------------------------------------------------

guitars 4 & 5: 

----------------------------------------F# 

-----------------------------------------2--
-----------------------------------------2--
-----------------------------------------3--
---------6---6---6---6--9------6------4-----
-----------------------------------------4--
---------4---4---4---4--7------4------2-----

guitar 6: 

---------------------------------------------------
---------------------------------------------------
-8-8-8-8-8-8-8-8-8-8-8-8-8-8-8-8--6-6-6-6-6-6-6-6--
---------------------------------------------------
-6-6-6-6-6-6-6-6-6-6-6-6-6-6-6-6--4-4-4-4-4-4-4-4--
---------------------------------------------------

Second Chorus: 

guitar 2: 

-12--14--16-------------------------12--14--16--
------------------------------------------------
------------------------------------------------
------------------------------------------------
------------------------------------------------
------------------------------------------------

guitars 4 & 5: 

--------------------------------------------------------------------
--------------------------------------------------------------------
------------11-11-11-11--9-8-4--------------11-11-11-11--9-8-4------
--------------------------------------------------------------------
-------------9--9---9--9---7-6-2---------------9--9---9--9---7-6-2--
--------------------------------------------------------------------

guitars 6 & 7: 

E 

-0----------------------------------------0--
-0----------------------------------------0--
-1----------------------------------------1--
-2----------------------------------------2--
-2----------------------------------------2--
-0----------------------------------------0--

then: 

guitar 2: 

-19--21--23------19--21--23--
-----------------------------
-----------------------------
-----------------------------
-----------------------------
-----------------------------

guitars 4 & 5: 

--------------------------------
--------------------------------
-4---6---8-----------4---6---8--
--------------------------------
-2---4---6-----------2---4---6--
--------------------------------

guitar 6: 

B5 

-------------------------
-------------------------
-4--------------------4--
-4--------------------4--
-2--------------------2--
-------------------------

guitar 7: 

----------------------------------------
----------------------------------------
-4-------------/8-------4-----------/8--
----------------------------------------
-2-------------/6-------2-----------/6--
----------------------------------------

then: 

guitar 2: 

-12--14--16-------------------------12--14--16--
------------------------------------------------
------------------------------------------------
------------------------------------------------
------------------------------------------------
------------------------------------------------

guitars 4 & 5: 

--------------------------------------------------------------------
--------------------------------------------------------------------
------------11-11-11-11--9-8-4--------------11-11-11-11--9-8-4------
--------------------------------------------------------------------
-------------9--9---9--9---7-6-2---------------9--9---9--9---7-6-2--
--------------------------------------------------------------------

guitars 6 & 7: 

E 

-0----------------------------------------0--
-0----------------------------------------0--
-1----------------------------------------1--
-2----------------------------------------2--
-2----------------------------------------2--
-0----------------------------------------0--

then: 

guitar 2: 

-19--21--23------19--21--23--
-----------------------------
-----------------------------
-----------------------------
-----------------------------
-----------------------------

guitars 4 & 5: 

--------------------------------
--------------------------------
-4---6---8-----------4---6---8--
--------------------------------
-2---4---6-----------2---4---6--
--------------------------------

guitar 6: 

B5 

-------------------------
-------------------------
-4--------------------4--
-4--------------------4--
-2--------------------2--
-------------------------

guitar 7: 

----------------------------------------
----------------------------------------
-4-------------/8-------4-----------/8--
----------------------------------------
-2-------------/6-------2-----------/6--
----------------------------------------

Outro: 

guitar 2: 

-----------------------------------------------------------------
----12-11-12-----12-11-12--------------12-11-12-----12-11-12-----
------------11-----------11--------------------11-----------11---
-----------------------------------------------------------------
-----------------------------------------------------------------
-----------------------------------------------------------------

guitar 3: 

-14----12----11-------------14--------12--------11---------------
----------------------12-----------------------------------12----
-----------------------------------------------------------------
-----------------------------------------------------------------
-----------------------------------------------------------------
-----------------------------------------------------------------

guitars 4 & 5: 

-----------------------------------------------------------------
-----------------------------------------------------------------
-------4----4----4----4--8--4--------------4-----4----4----4--8--
-----------------------------------------------------------------
-------2----2----2----2--6--2--------------2-----2----2----2--6--
-----------------------------------------------------------------

guitar 6: 

---------------------------------------------------------
---------------------------------------------------------
-8-8-8-8-8-8-8-8-8-8--11-8-8-8-8-8-8-8-8-8-8-8-8-8-8--9--
---------------------------------------------------------
-6-6-6-6-6-6-6-6-6-6---9-6-6-6-6-6-6-6-6-6-6-6-6-6-6--7--
---------------------------------------------------------

then: 

guitar 2: 

-------------------------------------------------------
-------------------------------------------------------
----13-11-13-----13-11-13------------------------------
----------------13-------------13------13-----11----8--
-------------------------------------------------------
-------------------------------------------------------

guitar 3: 

-19------------18-----------------------18-------------------
----------------------------19------------------19-----------
--------------------------------------------------------18---
-------------------------------------------------------------
-------------------------------------------------------------
-------------------------------------------------------------

guitars 4 & 5: 

----------------------------------------F# 

-----------------------------------------2--
-----------------------------------------2--
-----------------------------------------3--
---------6---6---6---6--9------6------4-----
-----------------------------------------4--
---------4---4---4---4--7------4------2-----

guitar 6: 

---------------------------------------------------
---------------------------------------------------
-8-8-8-8-8-8-8-8-8-8-8-8-8-8-8-8--6-6-6-6-6-6-6-6--
---------------------------------------------------
-6-6-6-6-6-6-6-6-6-6-6-6-6-6-6-6--4-4-4-4-4-4-4-4--
---------------------------------------------------

then: 

guitar 2: 
-----------------------------------------------------------------
----12-11-12-----12-11-12--------------12-11-12-----12-11-12-----
------------11-----------11--------------------11-----------11---
-----------------------------------------------------------------
-----------------------------------------------------------------
-----------------------------------------------------------------

guitar 3: 

-14----12----11-------------14--------12--------11---------------
----------------------12-----------------------------------12----
-----------------------------------------------------------------
-----------------------------------------------------------------
-----------------------------------------------------------------
-----------------------------------------------------------------

guitars 4 & 5: 

-----------------------------------------------------------------
-----------------------------------------------------------------
-------4----4----4----4--8--4--------------4-----4----4----4--8--
-----------------------------------------------------------------
-------2----2----2----2--6--2--------------2-----2----2----2--6--
-----------------------------------------------------------------

guitar 6: 

---------------------------------------------------------
---------------------------------------------------------
-8-8-8-8-8-8-8-8-8-8--11-8-8-8-8-8-8-8-8-8-8-8-8-8-8--9--
---------------------------------------------------------
-6-6-6-6-6-6-6-6-6-6---9-6-6-6-6-6-6-6-6-6-6-6-6-6-6--7--
---------------------------------------------------------

then: 

guitar 2: 

-------------------------------------------------------
-------------------------------------------------------
----13-11-13-----13-11-13------------------------------
----------------13-------------13------13-----11----8--
-------------------------------------------------------
-------------------------------------------------------

guitar 3: 

-19------------18-----------------------18-------------------
----------------------------19------------------19-----------
--------------------------------------------------------18---
-------------------------------------------------------------
-------------------------------------------------------------
-------------------------------------------------------------

guitars 4 & 5: 

----------------------------------------F# 

-----------------------------------------2--
-----------------------------------------2--
-----------------------------------------3--
---------6---6---6---6--9------6------4-----
-----------------------------------------4--
---------4---4---4---4--7------4------2-----

guitar 6: 

---------------------------------------------------
---------------------------------------------------
-8-8-8-8-8-8-8-8-8-8-8-8-8-8-8-8--6-6-6-6-6-6-6-6--
---------------------------------------------------
-6-6-6-6-6-6-6-6-6-6-6-6-6-6-6-6--4-4-4-4-4-4-4-4--
---------------------------------------------------

then: 

guitar 2: 

-----------------------------------------------------------------
----12-11-12-----12-11-12--------------12-11-12-----12-11-12-----
------------11-----------11--------------------11-----------11---
-----------------------------------------------------------------
-----------------------------------------------------------------
-----------------------------------------------------------------

guitar 3: 

-14----12----11-------------14--------12--------11---------------
----------------------12-----------------------------------12----
-----------------------------------------------------------------
-----------------------------------------------------------------
-----------------------------------------------------------------
-----------------------------------------------------------------

guitars 4 & 5: 

-----------------------------------------------------------------
-----------------------------------------------------------------
-------4----4----4----4--8--4--------------4-----4----4----4--8--
-----------------------------------------------------------------
-------2----2----2----2--6--2--------------2-----2----2----2--6--
-----------------------------------------------------------------

guitar 6: 

---------------------------------------------------------
---------------------------------------------------------
-8-8-8-8-8-8-8-8-8-8--11-8-8-8-8-8-8-8-8-8-8-8-8-8-8--9--
---------------------------------------------------------
-6-6-6-6-6-6-6-6-6-6---9-6-6-6-6-6-6-6-6-6-6-6-6-6-6--7--
---------------------------------------------------------

then: 

guitar 2: 

-------------------------------------------------------
-------------------------------------------------------
----13-11-13-----13-11-13------------------------------
----------------13-------------13------13-----11----8--
-------------------------------------------------------
-------------------------------------------------------

guitar 3: 

-19------------18-----------------------18-------------------
----------------------------19------------------19-----------
--------------------------------------------------------18---
-------------------------------------------------------------
-------------------------------------------------------------
-------------------------------------------------------------

guitars 4 & 5: 

----------------------------------------F# 

-----------------------------------------2--
-----------------------------------------2--
-----------------------------------------3--
---------6---6---6---6--9------6------4-----
-----------------------------------------4--
---------4---4---4---4--7------4------2-----

guitar 6: 

---------------------------------------------------
---------------------------------------------------
-8-8-8-8-8-8-8-8-8-8-8-8-8-8-8-8--6-6-6-6-6-6-6-6--
---------------------------------------------------
-6-6-6-6-6-6-6-6-6-6-6-6-6-6-6-6--4-4-4-4-4-4-4-4--
---------------------------------------------------

then: 

guitar 2: 

-----------------------------------------------------------------
----12-11-12-----12-11-12--------------12-11-12-----12-11-12-----
------------11-----------11--------------------11-----------11---
-----------------------------------------------------------------
-----------------------------------------------------------------
-----------------------------------------------------------------

guitar 3: 

-14----12----11-------------14--------12--------11---------------
----------------------12-----------------------------------12----
-----------------------------------------------------------------
-----------------------------------------------------------------
-----------------------------------------------------------------
-----------------------------------------------------------------

guitars 4 & 5: 

-----------------------------------------------------------------
-----------------------------------------------------------------
-------4----4----4----4--8--4--------------4-----4----4----4--8--
-----------------------------------------------------------------
-------2----2----2----2--6--2--------------2-----2----2----2--6--
-----------------------------------------------------------------

guitar 6: 

---------------------------------------------------------
---------------------------------------------------------
-8-8-8-8-8-8-8-8-8-8--11-8-8-8-8-8-8-8-8-8-8-8-8-8-8--9--
---------------------------------------------------------
-6-6-6-6-6-6-6-6-6-6---9-6-6-6-6-6-6-6-6-6-6-6-6-6-6--7--
---------------------------------------------------------

then: 

guitar 2: 

----------------------------------------------
----------------------------------------------
----13-11-13-----13-11-13---------------------
----------------13-------------13------13-----
----------------------------------------------
----------------------------------------------

guitar 3: 

-19------------18-----------------------18-----
----------------------------19-----------------
-----------------------------------------------
-----------------------------------------------
-----------------------------------------------
-----------------------------------------------

guitars 4 & 5: 

----------------------------------------F# 

-----------------------------------------2--
-----------------------------------------2--
-----------------------------------------3--
---------6---6---6---6--9------6------4-----
-----------------------------------------4--
---------4---4---4---4--7------4------2-----

guitar 6: 

----------------------------------------------
----------------------------------------------
-8-8-8-8-8-8-8-8-8-8-8-8-8-8-8-8--6-----------
----------------------------------------------
-6-6-6-6-6-6-6-6-6-6-6-6-6-6-6-6--4-----------
----------------------------------------------
copyed and edited from kensarcade@hotmail.com
www.emo.itgo.com
comments
We did not receive enough feedback on this tab! Please rate:
1 2 3 4 5
I want to post or [tab]
guest
You may want to rate the tab now too:
select rating
Please do not post tabs as comments. Select "correction" instead!