Oops, an error
Loading. Please wait.

Ghuleh Zombie Queen Bass Tab

2,907 views 57 this week
2 commentsread comments
1 2 3 4 5
excellent!
x 5
add to favorites launch autoscroll
font size
0
reset
Autoscroll
+/-
esc
set tempo
stop
Contributor
WARNING: You are trying to view
                                    content from Ultimate-Guitar.com
                                    in an unauthorized application,
                                    which is prohibited.

                                    Please use an official Ultimate
                                    Guitar Tabs application for iPhone,
                                    iPad or Android to access legitimate
                                    chords, guitar, bass, and drum tabs
                                    from Ultimate-Guitar.com database.

                                    Type "ultimate guitar tabs" in Apple
                                    App Store's or Android Market's
                                    search to find the application.
0:23
G|-----|-------------------------------------------------------------------|
D|-----|o-----------------------------------------------------------------o|
A|-5---|o-------------5---------------5---2---3-------0---5-----------5---o|
D|-----|--2---------------2------------------------------------------------|
   4 +    1 + 2 + 3 + 4 + 1 + 2 + 3 + 4 + 1 + 2 + 3 + 4 + 1 + 2 + 3 + 4 +

0:48
G|-----------------------------------------------------------------|
D|-----------------------------------------------------------------|
A|-------------5---------------5---2---3-------0---5-------5---5---|
D|-2---------------2-----------------------------------------------|
   1 + 2 + 3 + 4 + 1 + 2 + 3 + 4 + 1 + 2 + 3 + 4 + 1 + 2 + 3 + 4 +

G|-----------------------------------------------------------------|
D|-----------------------------------------------------------------|
A|-------------5---------------5---2---3-------0---5---------------|
D|-2---------------2-----------------------------------------------|
   1 + 2 + 3 + 4 + 1 + 2 + 3 + 4 + 1 + 2 + 3 + 4 + 1 + 2 + 3 + 4 +

1:13
G|-----------------------------------------------------------------|
D|-------------5-5-----------------------------5-5-----------------|
A|-----------------5-5-5-5-5-5-5-5-----------------5-5-5-5-5-5-3-3-|
D|-5-5-5-5-5-5---------------------5-5-5-5-5-5---------------------|
   1 + 2 + 3 + 4 + 1 + 2 + 3 + 4 + 1 + 2 + 3 + 4 + 1 + 2 + 3 + 4 +

G|-------------------------------------------------|
D|---------------------3---------------------------|
A|-------------------3---3---------3---------------|
D|-5-5-5-5-5-5-5-5-3-------------------5-----------|
   1 + 2 + 3 + 4 + 1 + 2 + 3 + 4 + 1 + 2 + 3 + 4 + 

rest

1:41
G|-----|-------------------------------------------------------------------|
D|-----|o-----------------------------------------------------------------o|
A|-5---|o-------------5---------------5---2---3-------0---5-----------5---o|
D|-----|--2---------------2------------------------------------------------|
   4 +    1 + 2 + 3 + 4 + 1 + 2 + 3 + 4 + 1 + 2 + 3 + 4 + 1 + 2 + 3 + 4 +

2:06
G|-----------------------------------------------------------------|
D|-----------------------------------------------------------------|
A|-------------5---------------5---2---3-------0---5-----------5---|
D|-2---------------2-----------------------------------------------|
   1 + 2 + 3 + 4 + 1 + 2 + 3 + 4 + 1 + 2 + 3 + 4 + 1 + 2 + 3 + 4 +
G|-----------------------------------------------------------------|
D|-----------------------------------------------------------------|
A|-------------5---------------5---2---3-------0---5---------------|
D|-2---------------2-----------------------------------------------|
   1 + 2 + 3 + 4 + 1 + 2 + 3 + 4 + 1 + 2 + 3 + 4 + 1 + 2 + 3 + 4 +

2:31
G|---------------------7-----7-7-7---------------------7-----------|
D|---5-------------------------------------------------------------|
A|-----------------5-5---5-5-----------------------5-5---5-5-5-3-3-|
D|-5---5-5-5-5-5-5-----------------5-5-5-5-5-5-5-5-----------------|
   1 + 2 + 3 + 4 + 1 + 2 + 3 + 4 + 1 + 2 + 3 + 4 + 1 + 2 + 3 + 4 +

G|-------------------------------------------------------12---------------|
D|---------------------3------------------------------10----10------------|
A|-------------------3---3---------3---------------8----------------------|
D|-5-5-5-5-5-5-5-5-3-------------------5----------------------------------|
   1 + 2 + 3 + 4 + 1 + 2 + 3 + 4 + 1 + 2 + 3 + 4 + 1  +  2  +  3  +  4  +

G|-------------------------|
D|-10----------------------|
A|-------10-------------\--|
D|-------------------------|
   1  +  2  +  3  +  4  +

Zombie Queen
3:04
G|------------------------------------------------------------------|
D|o---------2-2-------------2-2-------------2-2-------------2-2-----|
A|o-----2-2-----2-2-----2-2-----2-2-----2-2-----2-2-----2-2-----2-2-|
D|--2-2-------------2-2-------------2-2-------------2-2-------------|
    1 + 2 + 3 + 4 + 1 + 2 + 3 + 4 + 1 + 2 + 3 + 4 + 1 + 2 + 3 + 4 +

G|--------------------------------------------------------------------------|
D|---------2-2-----------------5-------------------------------3---2-------o|
A|-----2-2-----2-2-----2-2-3-----------------------------------------------o|
D|-2-2-------------2-2-------------5---\-------------------3----------------|
   1 + 2 + 3 + 4 + 1 + 2 + 3 + 4 + 1 + 2 + 3 + 4 + 1 + 2 + 3 + 4 + 5 + 6 +

3:30
G|-----------------------------------------------------------------|
D|---------2-2-------------2-2-------------------------------------|
A|-----2-2-----2-2-----2-2-----2-2-3-3-3-3---------3-3---------4-4-|
D|-2-2-------------2-2---------------------4-4-4-4-----4-4-3-3-----|
   1 + 2 + 3 + 4 + 1 + 2 + 3 + 4 + 1 + 2 + 3 + 4 + 1 + 2 + 3 + 4 +

G|-------------------------------------------------|
D|-------------------------------------------------|
A|-3-3-3-3---------3-3-3-3-4-4-4-4-5-5-5-5-6-------|
D|---------4-4-4-4---------------------------------|
   1 + 2 + 3 + 4 + 1 + 2 + 3 + 4 + 1 + 2 + 3 + 4 + 

3:40
G|-------------------------------------------------------------------|
D|o-----------------5-----------------------------------------------o|
A|o-7-------------------------------2-------------0-2---------------o|
D|-------------------------------------------------------------------|
    1 + 2 + 3 + 4 + 1 + 2 + 3 + 4 + 1 + 2 + 3 + 4 + 1 + 2 + 3 + 4 +

3:53
G|---------------------------------------------------------------------------------|
D|---------------------------------------------------------------------------------|
A|-2-------5-------5-------------------------------3-3-3-3-3-3-3-3-3-3-3-3-3-3-3-3-|
D|---------------------7-----------2-2-2-2-2-2-2-2---------------------------------|
   1 + 2 + 3 + 4 + 1 + 2 + 3 + 4 + 1 + 2 + 3 + 4 + 1 + 2 + 3 + 4 + 1 + 2 + 3 + 4 +

4:01
G|-------------------------------------------------------------------|
D|o-----------------5-5-5-5-5-5-5-5---------------------------------o|
A|o-7-7-7-7-7-7-7-7-----------------2-2-2-2-2-2-2-0-2-2-2-2-2-2-2-2-o|
D|-------------------------------------------------------------------|
    1 + 2 + 3 + 4 + 1 + 2 + 3 + 4 + 1 + 2 + 3 + 4 + 1 + 2 + 3 + 4 +

G|-----------------------------------------------------------------------------------------|
D|-----------------------------------------------------------------------------------------|
A|-2-------5-------5-------------------------------3-3-3-3-3-3-3-3/15-15-15-15-15-15-15-15-|
D|---------------------7-----------2-2-2-2-2-2-2-2-----------------------------------------|
   1 + 2 + 3 + 4 + 1 + 2 + 3 + 4 + 1 + 2 + 3 + 4 + 1 + 2 + 3 + 4 + 1  +  2  +  3  +  4  +

4:20
G|------------------------------------------------------------------|
D|o---------2-2-------------2-2-------------2-2-------------2-2-----|
A|o-----2-2-----2-2-----2-2-----2-2-----2-2-----2-2-----2-2-----2-2-|
D|--2-2-------------2-2-------------2-2-------------2-2-------------|
    1 + 2 + 3 + 4 + 1 + 2 + 3 + 4 + 1 + 2 + 3 + 4 + 1 + 2 + 3 + 4 +

G|--------------------------------------------------------------------------|
D|---------2-2-----------------5-------------------------------3---2-------o|
A|-----2-2-----2-2-----2-2-3-----------------------------------------------o|
D|-2-2-------------2-2-------------5---\-------------------3----------------|
   1 + 2 + 3 + 4 + 1 + 2 + 3 + 4 + 1 + 2 + 3 + 4 + 1 + 2 + 3 + 4 + 5 + 6 +

4:47
G|-----------------------------------------------------------------|
D|---------2-2-------------2-2-------------2-2-------------2-2-----|
A|-----2-2-----2-2-----2-2-----2-2-----2-2-----2-2-----2-2-----2-2-|
D|-2-2-------------2-2-------------2-2-------------2-2-------------|
   1 + 2 + 3 + 4 + 1 + 2 + 3 + 4 + 1 + 2 + 3 + 4 + 1 + 2 + 3 + 4 +

G|-----------------------------------------------------------------------------------------|
D|---------2-2-----------------5-----------------------------------------------------------|
A|-----2-2-----2-2-----2-2-3---------------------------------------------------------------|
D|-2-2-------------2-2-------------5---\-----------------------------------3-------2-------|
   1 + 2 + 3 + 4 + 1 + 2 + 3 + 4 + 1 + 2 + 3 + 4 + 1 + 2 + 3 + 4 + 1 + 2 + 3 + 4 + 5 + 6 +

5:01
G|-----------------------------------------------------------------|
D|---------2-2-------------2-2-------------------------------------|
A|-----2-2-----2-2-----2-2-----2-2-3-3-3-3---------3-3---------4-4-|
D|-2-2-------------2-2---------------------4-4-4-4-----4-4-3-3-----|
   1 + 2 + 3 + 4 + 1 + 2 + 3 + 4 + 1 + 2 + 3 + 4 + 1 + 2 + 3 + 4 +

G|---------------------------------|
D|---------------------------------|
A|-3-3-3-3---------3-3-3-3-4-4-4---|
D|---------4-4-4-4-----------------|
   1 + 2 + 3 + 4 + 1 + 2 + 3 + 4 + 

5:10
G|-------------------------------------------------------------------|
D|o-----------------------------------------------------------------o| 
A|o-5-----------------5-------------5-0-----------------------------o|x3
D|----2-------------5-------------------------------2-3--------------|
    1 + 2 + 3 + 4 + 1 + 2 + 3 + 4 + 1 + 2 + 3 + 4 + 1 + 2 + 3 + 4 + 

G|---------------------------------------------------------------------------------|
D|-----------------------------------------------------------------2---3-----------|
A|-5-----------------5-------------5-0---------------------------------------------|
D|---2-------------5-------------------------------2---3-------------------2-2-----|
   1 + 2 + 3 + 4 + 1 + 2 + 3 + 4 + 1 + 2 + 3 + 4 + 1 + 2 + 3 + 4 + 1 + 2 + 3 + 4 + 

Break

5:51
G|-----------------------------------------------------------------------------------------|
D|-----------------------------------------------------------------------------------------|
A|-7-7-7-7-7-7-7-7/15-15-15-15-15-15-15-15-15-15-15-15-15-15-15-15-15-15-15-15-15-15-15----|
D|-----------------------------------------------------------------------------------------|
   1 + 2 + 3 + 4 + 1  +  2  +  3  +  4  +  1  +  2  +  3  +  4  +  1  +  2  +  3  +  4  +

G|-------------------------------------------------------------------|
D|o-----------------------------------------------------------------o|
A|o---------------------------------2-2-2-2-2-2-2-2-2-2-2-2-2-2-2-2-o|
D|--2-2-2-2-2-2-2-2-5-5-5-5-5-5-5-5----------------------------------|
    1 + 2 + 3 + 4 + 1 + 2 + 3 + 4 + 1 + 2 + 3 + 4 + 1 + 2 + 3 + 4 +

G|---------------------------------------------------------------------------------|
D|---------------------------------------------------------------------------------|
A|-2-2-2-2-5-5-5-5-5-5-----------------------------3-3-3-3-3-3-3-3-3-3-3-3-3-3-3-3-|
D|---------------------7-7-7-7-7-7-2-2-2-2-2-2-2-2---------------------------------|
   1 + 2 + 3 + 4 + 1 + 2 + 3 + 4 + 1 + 2 + 3 + 4 + 1 + 2 + 3 + 4 + 1 + 2 + 3 + 4 +

6:18
G|-------------------------------------------------------------------|
D|o-----------------------------------------------------------------o|
A|o---------------------------------2-2-2-2-2-2-2-2-2-2-2-2-2-2-2-2-o|
D|--2-2-2-2-2-2-2-2-5-5-5-5-5-5-5-5----------------------------------|
    1 + 2 + 3 + 4 + 1 + 2 + 3 + 4 + 1 + 2 + 3 + 4 + 1 + 2 + 3 + 4 +

G|-----------------------------------------------------------------------------------------|
D|-----------------------------------------------------------------------------------------|
A|-2-2-2-2-5-5-5-5-5-5-----------------------------3-3-3-3-3-3-3-3/15-15-15-15-15-15-15-15-|
D|---------------------7-7-7-7-7-7-2-2-2-2-2-2-2-2-----------------------------------------|
   1 + 2 + 3 + 4 + 1 + 2 + 3 + 4 + 1 + 2 + 3 + 4 + 1 + 2 + 3 + 4 + 1  +  2  +  3  +  4  +

6:37
G|-------------------------------------------------------------------|
D|o-----------------------------------------------------------------o|
A|o---------------------------------2-2-2-2-2-2-2-2-2-2-2-2-2-2-2-2-o|
D|--2-2-2-2-2-2-2-2-5-5-5-5-5-5-5-5----------------------------------|
    1 + 2 + 3 + 4 + 1 + 2 + 3 + 4 + 1 + 2 + 3 + 4 + 1 + 2 + 3 + 4 +

G|---------------------------------------------------------------------------------|
D|-----------------7---7---7---7---------------------------------------------------|
A|-2-2-2-2-5-5-5-5---------------------------------3-3-3-3-3-3-3-3-3-3-3-3-3-3-3-3-|
D|---------------------------------2-2-2-2-2-2-2-2---------------------------------|
   1 + 2 + 3 + 4 + 1 + 2 + 3 + 4 + 1 + 2 + 3 + 4 + 1 + 2 + 3 + 4 + 1 + 2 + 3 + 4 +

6:57
G|-------------------------------------------------------------------|
D|o-----------------------------------------------------------------o|
A|o---------------------------------2-2-2-2-2-2-2-2-2-2-2-2-2-2-2-2-o|
D|--2-2-2-2-2-2-2-2-5-5-5-5-5-5-5-5----------------------------------|
    1 + 2 + 3 + 4 + 1 + 2 + 3 + 4 + 1 + 2 + 3 + 4 + 1 + 2 + 3 + 4 +

G|-----------------------------------------------------------------------------------------|
D|-----------------7---7---7---7-----------------------------------------------------------|
A|-2-2-2-2-5-5-5-5---------------------------------3-3-3-3-3-3-3-3/15-15-15-15-15-15-15-15-|
D|---------------------------------2-2-2-2-2-2-2-2-----------------------------------------|
   1 + 2 + 3 + 4 + 1 + 2 + 3 + 4 + 1 + 2 + 3 + 4 + 1 + 2 + 3 + 4 + 1  +  2  +  3  +  4  +

G|------------|
D|------------|
A|------------|
D|-12-14-\----|
Tabbed by Dave Vucko
comments
print report bad tab
2 comments total.
+1 reply
6METAL6BASSIST6 wrote on July 26 2013, 04:10 pm

Man you are amazing, I just found these guys last night and their basslines are so good, thank you for all these bass tabs.

+1 reply
deltron13 wrote on April 5 2014, 04:42 am

why this doesnt have morevotes for good...is beyond me

I want to post or [tab]
guest
You may want to rate the tab now too:
select rating
Please do not post tabs as comments. Select "correction" instead!