Oops, an error
Loading. Please wait.

Infestissumam Bass Tab

ver1
ver1

Album

Whole song

Interactive

More versions @911Tabs.com
4,778 views 12 this week
3 commentsread comments
1 2 3 4 5
excellent!
x 4
Autoscroll
+/-
esc
set tempo
stop
Contributor
Difficulty
Tuning
intermediate
D A D G B E
Hey! There's an official Ultimate Guitar app which is ideal
for learning songs when you're away from computer. Get the app
WARNING: You are trying to view
                                    content from Ultimate-Guitar.com
                                    in an unauthorized application,
                                    which is prohibited.

                                    Please use an official Ultimate
                                    Guitar Tabs application for iPhone,
                                    iPad or Android to access legitimate
                                    chords, guitar, bass, and drum tabs
                                    from Ultimate-Guitar.com database.

                                    Type "ultimate guitar tabs" in Apple
                                    App Store's or Android Market's
                                    search to find the application.
Infestissumam
0:23
G|-------------------------------------------------|
D|-------------------------------------------------|
A|-------------------------3-3-3-3-3-3-------------|
D|-0-0-0-0-0-0-3-3-3-3-3-3-------------5-5-5-5-5-5-|
   1 + 2 + 3 + 1 + 2 + 3 + 1 + 2 + 3 + 1 + 2 + 3 + 

G|-------------------------------------------------|
D|-------------------------------------------------|
A|-------------------------3-3-3-3-3-3-3-3-3-3-3-3-|
D|-0-0-0-0-0-0-3-3-3-3-3-3-------------------------|
   1 + 2 + 3 + 1 + 2 + 3 + 1 + 2 + 3 + 1 + 2 + 3 + 

G|-------------------------------------------------|
D|-------------------------------------------------|
A|-------------------------3-3-3-3-3-3-------------|
D|-0-0-0-0-0-0-3-3-3-3-3-3-------------5-5-5-5-3-3-|
   1 + 2 + 3 + 1 + 2 + 3 + 1 + 2 + 3 + 1 + 2 + 3 + 

G|-------------------------------------------------|
D|-------------------------------------------------|
A|-------------------------3-3-3-3-3-3-3-3-3-3-3-3-|
D|-0-0-0-0-0-0-3-3-3-3-3-3-------------------------|
   1 + 2 + 3 + 1 + 2 + 3 + 1 + 2 + 3 + 1 + 2 + 3 + 

0:45
G|-------------------------------------------------------------------------|
D|-------------------------------------------------------------------------|
A|-------------1-1-1-1-1-1-------------------------3-3-3-3-3-3-------------|
D|-5-5-5-5-5-5-------------0-0-0-0-0-0-3-3-3-3-3-3-------------5-5-5-5-5-5-|
   1 + 2 + 3 + 1 + 2 + 3 + 1 + 2 + 3 + 1 + 2 + 3 + 1 + 2 + 3 + 1 + 2 + 3 +

G|-------------------------------------------------|
D|-------------------------------------------------|
A|-------------------------3-3-3-3-3-3-3-3-3-3-3-3-|
D|-0-0-0-0-0-0-3-3-3-3-3-3-------------------------|
   1 + 2 + 3 + 1 + 2 + 3 + 1 + 2 + 3 + 1 + 2 + 3 + 

G|-------------------------------------------------|
D|-------------------------------------------------|
A|-------------------------3-3-3-3-3-3-------------|
D|-0-0-0-0-0-0-3-3-3-3-3-3-------------5-5-5-5-3-3-|
   1 + 2 + 3 + 1 + 2 + 3 + 1 + 2 + 3 + 1 + 2 + 3 + 

G|-------------------------------------------------|
D|-------------------------------------------------|
A|-------------------------3-3-3-3-3-3-3-3-3-3-----|
D|-0-0-0-0-0-0-3-3-3-3-3-3---------------------3-4-|
   1 + 2 + 3 + 1 + 2 + 3 + 1 + 2 + 3 + 1 + 2 + 3 + 

1:10
G|-------------------------------------------------|
D|-------------------------------------------------|
A|-------------1-1-1-1-1-1-3-3-3-3-3-3-3-3-3-3-3-3-|
D|-5-5-5-5-5-5-------------------------------------|
   1 + 2 + 3 + 1 + 2 + 3 + 1 + 2 + 3 + 1 + 2 + 3 + 

G|-------------------------------------------------------------------------|
D|-------------------------------------------------------------------------|
A|-------------1-1-1-1-1-1-------------------------3-3-3-3-3-3-------------|
D|-5-5-5-5-5-5-------------0-0-0-0-0-0-3-3-3-3-3-3-------------5-5-5-5-5-5-|
   1 + 2 + 3 + 1 + 2 + 3 + 1 + 2 + 3 + 1 + 2 + 3 + 1 + 2 + 3 + 1 + 2 + 3 +

G|-------------------------------------------------|
D|-------------------------------------------------|
A|-------------------------3-3-3-3-3-3-3-3-3-3-3-3-|
D|-0-0-0-0-0-0-3-3-3-3-3-3-------------------------|
   1 + 2 + 3 + 1 + 2 + 3 + 1 + 2 + 3 + 1 + 2 + 3 + 

1:30
G|-------------------------------------------------|
D|-------------------------------------------------|
A|-------------------------3-3-3-3-3-3-------------|
D|-0-0-0-0-0-0-3-3-3-3-3-3-------------5-5-5-5-3-3-|
   1 + 2 + 3 + 1 + 2 + 3 + 1 + 2 + 3 + 1 + 2 + 3 + 

G|-----------------------------------------------------|
D|-----------------------------------------------------|
A|-------------------------4-4-4-4-4-4-4----4-4-4--4---|
D|-0-0-0-0-0-0-3-3-3-3-3-3-----------------------------|
   1 + 2 + 3 + 1 + 2 + 3 + 1 + 2 + 3 + 1 + Triplet 3 + 
Tabbed by Dave Vucko

===============================================================================

Per Aspera Ad Inferi
G|-------------------------------------------------|
D|-------------------------------------------------|
A|-------------------------------6-----------7-----|
D|-5-----------------------------------------------|
   1 2 3 4 5 6 1 2 3 4 5 6 1 2 3 4 5 6 1 2 3 4 5 6 

G|-------------------------------------------------|
D|-------------------------------------------------|
A|-------------------------------------------------|
D|-5-----------------------------------------------|
   1 2 3 4 5 6 1 2 3 4 5 6 1 2 3 4 5 6 1 2 3 4 5 6

G|---------------------------------------------------|
D|o-------------------------------------------------o|
A|o-------------4-----------------------------------o|x4
D|--5-5-5-5-5-5-------5-5-5-5-5-5-1-----5-5-5-2------|
    1 2 3 4 5 6 1 2 3 4 5 6 1 2 3 4 5 6 1 2 3 4 5 6 

0:22
G|--------------------------------------------------|
D|o-------------------------------------------------|
A|o-------------------------6-4-2-6-----------------|
D|--1---1-------1---1-------------------------9-\---|
    1 2 3 4 5 6 1 2 3 4 5 6 1 2 3 4 5 6 1 2 3 4 5 6 

G|--------------------------------------------------|
D|-------------------------------------------------o|
A|-------------2---2-------------2-----1-----0-----o|
D|-1---1--------------------------------------------|
   1 2 3 4 5 6 1 2 3 4 5 6 1 2 3 4 5 6 1 2 3 4 5 6

0:36
G|---------------------------------------------------|
D|o-------------------------------------------------o|
A|o-------------4-----------------------------------o|
D|--5-5-5-5-5-5-------5-5-5-5-5-5-1-----5-5-5-2------|
    1 2 3 4 5 6 1 2 3 4 5 6 1 2 3 4 5 6 1 2 3 4 5 6 

0:44
G|--------------------------------------------------|
D|o-------------------------------------------------|
A|o-------------------------6-4-2-6-----------------|
D|--1---1-------1---1-------------------------9-\---|
    1 2 3 4 5 6 1 2 3 4 5 6 1 2 3 4 5 6 1 2 3 4 5 6 

G|--------------------------------------------------|
D|-------------------------------------------------o|
A|-------------2---2-------------2-----1-----0-----o|
D|-1---1--------------------------------------------|
   1 2 3 4 5 6 1 2 3 4 5 6 1 2 3 4 5 6 1 2 3 4 5 6

0:59
G|-------------------------------------------------|
D|-------------------------------------------------|
A|-------------------------------------------------|
D|-0-----0-----6-----0-----0-----8-----0-----9-----|
   1 2 3 4 5 6 1 2 3 4 5 6 1 2 3 4 5 6 1 2 3 4 5 6

G|-------------------------------------------|
D|-------------------------------------------|
A|-------------------------------------------|
D|-0-----0-----6-----0-----0-----8-----0-----|
   1 2 3 4 5 6 1 2 3 4 5 6 1 2 3 4 5 6 1 2 3 

1:06
G|---------------------------------------------------|
D|o-------------------------------------------------o|
A|o-6-----6-6-6-6-----6-----6-----6-6-6-6-----6-----o|x4
D|---------------------------------------------------|
    1 2 3 4 5 6 1 2 3 4 5 6 1 2 3 4 5 6 1 2 3 4 5 6

1:21
G|-------------------------------------------------|
D|-------------------------------------------------|
A|-6-----6-6-6-6-----6-----6-----6-6-6-6-----6-----|
D|-------------------------------------------------|
   1 2 3 4 5 6 1 2 3 4 5 6 1 2 3 4 5 6 1 2 3 4 5 6

G|-------------------------------------------------|
D|-------------------------------------------------|
A|-4-----4-4-4-4-----4-----2-----2-2-2-2-----2-----|
D|-------------------------------------------------|
   1 2 3 4 5 6 1 2 3 4 5 6 1 2 3 4 5 6 1 2 3 4 5 6

G|-------------------------------------------------|
D|-------------------------------------------------|
A|-2-----2-2-2-2-----4-----6-----6-6-6-6-----6-----|
D|-------------------------------------------------|
   1 2 3 4 5 6 1 2 3 4 5 6 1 2 3 4 5 6 1 2 3 4 5 6

G|-------------------------------------------------|
D|-------------------------------------------------|
A|-4-----4-4-4-4-----4-----2-----2-2-2-2-----2-----|
D|-------------------------------------------------|
   1 2 3 4 5 6 1 2 3 4 5 6 1 2 3 4 5 6 1 2 3 4 5 6

1:36
G|-------------------------------------------------|
D|-------------------------------------------------|
A|-------------------------------4-----------5-----|
D|-3-----------------------------------------------|
   1 2 3 4 5 6 1 2 3 4 5 6 1 2 3 4 5 6 1 2 3 4 5 6 

G|-------------------------------------------------|
D|-------------------------------------------------|
A|-------------------------------4-----------------|
D|-3-----0-----------0-----------------------0-----|
   1 2 3 4 5 6 1 2 3 4 5 6 1 2 3 4 5 6 1 2 3 4 5 6

1:44
G|--------------------------------------------------|
D|o-------------------------------------------------|
A|o-------------------------------------4---4-6---6-|
D|--------0-0-0-------0-0-0-------0-0-0-------------|
    1 2 3 4 5 6 1 2 3 4 5 6 1 2 3 4 5 6 1 2 3 4 5 6

G|--------------------------------------------------|
D|-------------------------------------------------o|
A|-----------------------------------5-4-5-5-4-5-5-o|
D|-0-0-0-2-2-2-3-3-3-8-8-8-7-7-7-6-6----------------|
   1 2 3 4 5 6 1 2 3 4 5 6 1 2 3 4 5 6 1 2 3 4 5 6

1:58
G|-------------------------------------------------|
D|-------------------------------------------------|
A|-------------------------------------------------|
D|-------0-0-0-------0-0-0-------------------------|
   1 2 3 4 5 6 1 2 3 4 5 6 1 2 3 4 5 6 1 2 3 4 5 6

G|-------------------------------------------------------------|
D|-------------------------------------------------------------|
A|-------------------------------------4-5-5-4-5-5-r-----------|
D|-0-0-0-2-2-2-3-3-3-8-8-8-7-7-7-6-6-6-------------------------|
   1 2 3 4 5 6 1 2 3 4 5 6 1 2 3 4 5 6 1 2 3 4 5 6 1 2 3 4 5 6

2:07
G|---------------------------------------------------|
D|o-------------------------------------------------o|
A|o-------------4-----------------------------------o|x4
D|--5-5-5-5-5-5-------5-5-5-5-5-5-1-----5-5-5-2------|
    1 2 3 4 5 6 1 2 3 4 5 6 1 2 3 4 5 6 1 2 3 4 5 6 

2:22
G|--------------------------------------------------|
D|o-------------------------------------------------|
A|o-------------------------6-4-2-6-----------------|
D|--1---1-------1---1-------------------------9-\---|
    1 2 3 4 5 6 1 2 3 4 5 6 1 2 3 4 5 6 1 2 3 4 5 6 

G|--------------------------------------------------|
D|-------------------------------------------------o|
A|-------------2---2-------------2-----1-----0-----o|x4
D|-1---1--------------------------------------------|
   1 2 3 4 5 6 1 2 3 4 5 6 1 2 3 4 5 6 1 2 3 4 5 6

2:52
G|-------------------------------------------------|
D|-------------------------------------------------|
A|-------------------------------------------------|
D|-0-----0-----6-----0-----0-----8-----0-----9-----|
   1 2 3 4 5 6 1 2 3 4 5 6 1 2 3 4 5 6 1 2 3 4 5 6

G|-------------------------------------------|
D|-------------------------------------------|
A|-------------------------------------------|
D|-0-----0-----6-----0-----0-----8-----0-----|
   1 2 3 4 5 6 1 2 3 4 5 6 1 2 3 4 5 6 1 2 3 

2:59
G|---------------------------------------------------|
D|o-------------------------------------------------o|
A|o-6-----6-6-6-6-----6-----6-----6-6-6-6-----6-----o|x4
D|---------------------------------------------------|
    1 2 3 4 5 6 1 2 3 4 5 6 1 2 3 4 5 6 1 2 3 4 5 6

3:14
G|-------------------------------------------------|
D|-------------------------------------------------|
A|-6-----6-6-6-6-----6-----6-----6-6-6-6-----6-----|
D|-------------------------------------------------|
   1 2 3 4 5 6 1 2 3 4 5 6 1 2 3 4 5 6 1 2 3 4 5 6

G|-------------------------------------------------|
D|-------------------------------------------------|
A|-4-----4-4-4-4-----4-----2-----2-2-2-2-----2-----|
D|-------------------------------------------------|
   1 2 3 4 5 6 1 2 3 4 5 6 1 2 3 4 5 6 1 2 3 4 5 6

G|-------------------------------------------------|
D|-------------------------------------------------|
A|-2-----2-2-2-2-----4-----6-----6-6-6-6-----6-----|
D|-------------------------------------------------|
   1 2 3 4 5 6 1 2 3 4 5 6 1 2 3 4 5 6 1 2 3 4 5 6

G|-------------------------------------------------|
D|-------------------------------------------------|
A|-4-----4-4-4-4-----4-----2-----2-2-2-2-----2-----|
D|-------------------------------------------------|
   1 2 3 4 5 6 1 2 3 4 5 6 1 2 3 4 5 6 1 2 3 4 5 6

3:29
G|--------------------------------------------------|
D|o-------------------------------------------------|
A|o-2-----2-2-2-2-----1-----------------------------|
D|--------------------------1-----1-1-1-1-----4-----|
    1 2 3 4 5 6 1 2 3 4 5 6 1 2 3 4 5 6 1 2 3 4 5 6

G|--------------------------------------------------|
D|-------------------1-----------------------------o|
A|-4-----4-4-4-4-----------2-----2-2-2-2-----2-----o|x3
D|--------------------------------------------------|
   1 2 3 4 5 6 1 2 3 4 5 6 1 2 3 4 5 6 1 2 3 4 5 6

G|-------------------------------------------------|
D|-------------------------------------------------|
A|-2-----2-2-2-2-----1-----------------------------|
D|-------------------------1-----1-1-1-1-----4-----|
   1 2 3 4 5 6 1 2 3 4 5 6 1 2 3 4 5 6 1 2 3 4 5 6

G|-------------------------------------------------|
D|-------------------1-----------------------------|
A|-4-----4-4-4-4-----------2-----2-2-2-2-2-2-2-2-2-|
D|-------------------------------------------------|
   1 2 3 4 5 6 1 2 3 4 5 6 1 2 3 4 5 6 1 2 3 4 5 6
Tabbed by Dave Vucko

===============================================================================

Secular Haze

0:07
G|-------------------------------------------------------------------------------------------------- -|
D|o------------------------------------------------------------------------------------------------- o|
A|o-3---3---3---3-----------3---3---3---3-----------3---6---6---6---5---5---5---------------5---5--- o|
D|------------------4---4-------------------6---6-------------------------------5---5---5----------- -|
    1   2   3   4   5   6   1   2   3   4   5   6   1   2   3   4   5   6   1   2   3   4   5   6 

G|-------------------------------------------------------------------------------------------------- -|
D|o------------------------------------------------------------------------------------------------- o|
A|o-----------------------------------------------------8---8---8---7---7---7---------------7---7--- o|
D|--0-----------0---6---6---0-----------0---8---8---0---------------------------7---7---7----------- -|
    1   2   3   4   5   6   1   2   3   4   5   6   1   2   3   4   5   6   1   2   3   4   5   6 

0:35
G|-------------------------------------------------------------------------------------------------- -|
D|o------------------------------------------------------------------------------------------------- o|
A|o---------------------6---------------3---2---1-----------------------6---------------3---2---1--- o|
D|--2---2---2---------------2-2-2-2-2-2-------------2---2---2---------------2-2-2-2-2-2------------- -|
    1   2   3   4   5   6   1   2   3   4   5   6   1   2   3   4   5   6   1   2   3   4   5   6 

0:50
G|-------------------------------------------------------------------------------------------------|
D|-------------------------------------------------------------------------------------------------|
A|-----------------------------------------7-\-----------------------------------------------------|
D|-------------------------------------7-------3-/-7-----------6---5---3-/-7-----------7---3---3-/-|
   1   2   3   4   5   6   1   2   3   4   5   6   1   2   3   4   5   6   1   2   3   4   5   6 

G|-------------------------------------------------------------------------------------------------- -|
D|o------------------------------------------------------------------------------------------------- o|
A|o------------------------------------------------------------------------------------------------- o|x4
D|--7-----------6---5---3-/-7-----------7---3---3-/-7-----------6---5---3-/-7-----------7---3---3-/- -|
    1   2   3   4   5   6   1   2   3   4   5   6   1   2   3   4   5   6   1   2   3   4   5   6 

1:26
G|-------------------------------------------------------------------------------------------------|
D|-------------------------------------------------------------------------------------------------|
A|---------------------------------------------8---7---7---7---------------------------------------|
D|-7-----------6---5---3-/-7-----------6---5-------------------------------8-----------6-----------|
   1   2   3   4   5   6   1   2   3   4   5   6   1   2   3   4   5   6   1   2   3   4   5   6 


1:33
G|-------------------------------------------------------------------------------------------------|
D|---------------------------------------------8-----------------------------------------------8---|
A|-3-------3---------------3-------3h5-----8-------3-------3---------------3-------3h5-----8-------|
D|-----5-------6-------5-------5-------8---------------5-------6-------5-------5-------8-----------|
   1   2   3   4   5   6   1   2   3   4   5   6   1   2   3   4   5   6   1   2   3   4   5   6 

1:40
G|-----------------------------------------------------12----------12----------12----------12------|
D|-8---10--6---6---8---8---8---10--10--10--12--12----------12----------12----------12----------12--|
A|-------------------------------------------------10----------10----------10----------10----------|
D|-------------------------------------------------------------------------------------------------|
   1   2   3   4   5   6   1   2   3   4   5   6   1   2   3   4   5   6   1   2   3   4   5   6 

1:48
G|-------------------------------------------------------------------------------------------------|
D|-------------------------------------8-------8-----------------------------------------------8---|
A|-3-------3---------------3-------3h5-----8-------3-------3---------------3-------3h5-----8-------|
D|-----5-------6-------5-------5-----------------------5-------6-------5-------5-------8-----------|
   1   2   3   4   5   6   1   2   3   4   5   6   1   2   3   4   5   6   1   2   3   4   5   6 


G|-------------------------------------------------------------------------------------------------|
D|-8---10--10--10--12--12--12--13--13--13--15--15--12--12--12--------------------------------------|
A|-------------------------------------------------------------------------4-----------2-----------|
D|-------------------------------------------------------------------------------------------------|
   1   2   3   4   5   6   1   2   3   4   5   6   1   2   3   4   5   6   1   2   3   4   5   6 

G|-------------------------------------------------------------------------------------------------|
D|-------------------------------------------------------------------------------------------------|
A|-3-----------------------3---3---3---3-----------3---3---3---3-----------3---6---6---6---5---5---|
D|-----------------------------------------4---4-------------------6---6---------------------------|
   1   2   3   4   5   6   1   2   3   4   5   6   1   2   3   4   5   6   1   2   3   4   5   6 

G|-------------------------------------|
D|-------------------------------------|
A|-5-----------------------------------|
D|-----5---5---------------------------|
   1   2   3   4   5   6   1   2   3  

2:12
G|---------------------------------------------------|
D|o-------------------------------------------------o|
A|o-------------------------------------------------o|x7
D|--7-----------6---5---3-/-7-----------7---3---3-/--|
    1   2   3   4   5   6   1   2   3   4   5   6  

G|-------------------------------------------------------------------------------------------------|
D|-------------------------------------------------------------------------------------------------|
A|---------------------------------------------8---7---7---7---------------------------------------|
D|-7-----------6---5---3-/-7-----------6---5-------------------------------8-----------6-----------|
   1   2   3   4   5   6   1   2   3   4   5   6   1   2   3   4   5   6   1   2   3   4   5   6 

2:44
G|-------------------------------------------------------------------------------------------------|
D|---------------------------------------------8-----------------------------------------------8---|
A|-3-------3---------------3-------3h5-----8-------3-------3---------------3-------3h5-----8-------|
D|-----5-------6-------5-------5-------8---------------5-------6-------5-------5-------8-----------|
   1   2   3   4   5   6   1   2   3   4   5   6   1   2   3   4   5   6   1   2   3   4   5   6 

G|-----------------------------------------------------12----------12----------12----------12------|
D|-8---10--6---6---8---8---8---10--10--10--12--12----------12----------12----------12----------12--|
A|-------------------------------------------------10----------10----------10----------10----------|
D|-------------------------------------------------------------------------------------------------|
   1   2   3   4   5   6   1   2   3   4   5   6   1   2   3   4   5   6   1   2   3   4   5   6 

G|-------------------------------------------------------------------------------------------------|
D|---------------------------------------------8-----------------------------------------------8---|
A|-3-------3---------------3-------3h5-----8-------3-------3---------------3-------3h5-----8-------|
D|-----5-------6-------5-------5-------8---------------5-------6-------5-------5-------8-----------|
   1   2   3   4   5   6   1   2   3   4   5   6   1   2   3   4   5   6   1   2   3   4   5   6 

G|-------------------------------------------------------------------------------------------------|
D|-8---10--10--10--12--12--12--13--13--13--15--15--12--12--12--------------------------------------|
A|-------------------------------------------------------------------------4-----------2-----------|
D|-------------------------------------------------------------------------------------------------|
   1   2   3   4   5   6   1   2   3   4   5   6   1   2   3   4   5   6   1   2   3   4   5   6 

G|-------------------------|
D|-------------------------|
A|-3-----------------------|
D|-------------------------|
   1   2   3   4   5   6 

3:15
G|-------------------------------------------------------------------------------------------------- -|
D|o------------------------------------------------------------------------------------------------- o|
A|o-----------------------------------------------------8---8---8---7---7---7---------------7---7--- o|
D|--0-----------0---6---6---0-----------0---8---8---0---------------------------7---7---7----------- -|
    1   2   3   4   5   6   1   2   3   4   5   6   1   2   3   4   5   6   1   2   3   4   5   6 

G|-------------------------------------------------------------------------------------------------- -|
D|o------------------------------------------------------------------------------------------------- o|
A|o---------------------6---------------3---2---1-----------------------6---------------3---2---1--- o|
D|--2---2---2---------------2-2-2-2-2-2-------------2---2---2---------------2-2-2-2-2-2------------- -|
    1   2   3   4   5   6   1   2   3   4   5   6   1   2   3   4   5   6   1   2   3   4   5   6 

3:43
G|-------------------------------------------------------------------------------------------------|
D|-------------------------------------------------------------------------------------------------|
A|-------------------------------------------------------------------------------------------------|
D|-------------------------------------7-------3-/-7-----------6---5---3-/-7-----------7---3---3-/-|
   1   2   3   4   5   6   1   2   3   4   5   6   1   2   3   4   5   6   1   2   3   4   5   6 

G|---------------------------------------------------|
D|o-------------------------------------------------o|
A|o-------------------------------------------------o|x6
D|--7-----------6---5---3-/-7-----------7---3---3-/--|
    1   2   3   4   5   6   1   2   3   4   5   6  

G|-------------------------------------------------------------------------------------------------|
D|-------------------------------------------------------------------------------------------------|
A|---------------------------------------------8---7---7---7---------------------------------------|
D|-7-----------6---5---3-/-7-----------6---5-------------------------------8-----------6-----------|
   1   2   3   4   5   6   1   2   3   4   5   6   1   2   3   4   5   6   1   2   3   4   5   6 

4:19
G|-------------------------------------------------------------------------------------------------|
D|---------------------------------------------8-----------------------------------------------8---|
A|-3-------3---------------3-------3h5-----8-------3-------3---------------3-------3h5-----8-------|
D|-----5-------6-------5-------5-------8---------------5-------6-------5-------5-------8-----------|
   1   2   3   4   5   6   1   2   3   4   5   6   1   2   3   4   5   6   1   2   3   4   5   6 

G|-------------------------------------------------|
D|-8---10--6---6---8---8---8---10--10--10--12--12--|
A|-------------------------------------------------|
D|-------------------------------------------------|
   1   2   3   4   5   6   1   2   3   4   5   6   

G|-------------------------------------------------------------------------------------------------|
D|---------------------------------------------8-----------------------------------------------8---|
A|-3-------3---------------3-------3h5-----8-------3-------3---------------3-------3h5-----8-------|
D|-----5-------6-------5-------5-------8---------------5-------6-------5-------5-------8-----------|
   1   2   3   4   5   6   1   2   3   4   5   6   1   2   3   4   5   6   1   2   3   4   5   6 

G|-------------------------------------------------|
D|-8---10--10--10--12--12--12--13--13--13--15--15--|
A|-------------------------------------------------|
D|-------------------------------------------------|
   1   2   3   4   5   6   1   2   3   4   5   6   

4:41
G|-------------------------------------------------------------------------------------------------- |
D|o------------------------------------------------------------------------------------------------- |
A|o-------------0---1---0---------------------------3---5---3-------------------------------0---1--- |
D|--0---2---3---------------0---0---0---0---2---3---------------5-----------------------3----------- |
    1   2   3   4   5   6   1   2   3   4   5   6   1   2   3   4   5   6   1   2   3   4   5   6 

G|--------------------------|----------------------------------------------------------------------- |
D|-------------------------o|----------------------------------------------------------------------- |
A|-3---3---3---3---3---3---o|-0-0-0---0------------------------------------------------------------- |
D|--------------------------|-------------------------3-----------1-----------0--------------------- |
   1   2   3   4   5   6      1   2   3   4   5   6   1   2   3   4   5   6   1   2   3   4   5   6 

Tabbed by Dave Vucko

===============================================================================

Jigolo Har Megiddo

Eighth notes played as
D|-1---1-1---1-1---1-1---1-|
   1   + 2   + 3   + 4   + 
(listen to the rhythm)
Instead of
D|-1---1---1---1---1---1---1---1---|
   1 e + a 2 e + a 3 e + a 4 e + a

G|------------------------------------------------/-7---7---7-------|
D|o-----------------------------------------------------------------|
A|o-----------------------------------------------------------------|
D|--7-------7---\---5-------5---\---3-------3-----------------------|
    1 e + a 2 e + a 3 e + a 4 e + a 1 e + a 2 e + a 3 e + a 4 e + a

G|-----------------------------------------------/-7---7-/-7---7----|
D|-----------------------------------------------------------------o|
A|-----------------------------------------------------------------o|
D|-7-------7---\---5-------5---\---3-------3------------------------|
   1 e + a 2 e + a 3 e + a 4 e + a 1 e + a 2 e + a 3 e + a 4 e + a

0:16
G|-----------------------------------------------------------------|
D|-----------------------------------------------------------------|
A|-----------------------------------------------------------------|
D|-7-------7---\---5-------5---\---3-------3---\---0-------0---5---|
   1 e + a 2 e + a 3 e + a 4 e + a 1 e + a 2 e + a 3 e + a 4 e + a

G|-----------------------------------------------------------------|
D|-----------------------------------------------------------------|
A|-------------------------3---------------------------------------|
D|-7---5---7---5-------5-------3---3-----------0---2h3p2-------5---|
   1 e + a 2 e + a 3 e + a 4 e + a 1 e + a 2 e + a 3 e + a 4 e + a

0:23
G|-----------------------------------------------------------------|
D|-------------------------------------------------------------12--|
A|-----------------------------------------------------------------|
D|-7-------7---\---5-------5---\---3-------3---\---0-------0-------|
   1 e + a 2 e + a 3 e + a 4 e + a 1 e + a 2 e + a 3 e + a 4 e + a

G|-------------------------12---------------------------------------|
D|-14--12--14--12------12------10--10----------7---9h10p9-----------|
A|------------------------------------------------------------------|
D|------------------------------------------------------------------|
   1 e + a 2 e + a 3 e + a 4 e + a 1 e + a 2 e + a 3 e  + a 4 e + a

0:30
G|-----------------------------------------------------------------|
D|-----------------------------------------------------------------|
A|-----------------------------------------------------------------|
D|-7-------7---\---5-------5---\---3-------3---\---0-------0---5---|
   1 e + a 2 e + a 3 e + a 4 e + a 1 e + a 2 e + a 3 e + a 4 e + a


G|-----------------------------------------------------------------|
D|-----------------------------------------------------------------|
A|-----------------8-------8-------9-------9-------10------10------|
D|-7-------7-------------------------------------------------------|
   1 e + a 2 e + a 3 e + a 4 e + a 1 e + a 2 e + a 3 e + a 4 e + a

0:37
G|-----------------------------------------------------------------|
D|-----------------------------------------------------------------|
A|-----------------------------------------------------------------|
D|-7-------7---\---5-------5---\---3-------3---\---0-------3-------|
   1 e + a 2 e + a 3 e + a 4 e + a 1 e + a 2 e + a 3 e + a 4 e + a

G|-----------------------------------------------------------------|
D|-----------------------------------------------------------------|
A|---------------------------------5-------------------------------|
D|-5---------------------------------------------------------------|
   1 e + a 2 e + a 3 e + a 4 e + a 1 e + a 2 e + a 3 e + a 4 e + a

G|-------------------------------------------------------------------------|
D|-------------------------------------------------------------------------|
A|-3-------------------------------10-10-10--10-10-10--10-10-10--10-10-10--|
D|-------------------------------------------------------------------------|
   1 e + a 2 e + a 3 e + a 4 e + a Tri-pl-et Tri-pl-et Tri-pl-et Tri-pl-et 

0:48
G|-----------------------------------------------------------------|
D|-----------------------------------------------------------------|
A|-5---5---5---5---5---5---5---5---1---1---1---1---1---1---1---1---|
D|-----------------------------------------------------------------|
   1 e + a 2 e + a 3 e + a 4 e + a 1 e + a 2 e + a 3 e + a 4 e + a

G|-------------------------------------------------------------------------|
D|-------------------------------------------------------------------------|
A|-8---8---8---8---8---8---8---8---12-12-12--12-12-12--12-12-12--12--------|
D|-------------------------------------------------------------------------|
   1 e + a 2 e + a 3 e + a 4 e + a Tri-pl-et Tri-pl-et Tri-pl-et 4 e + a 

0:56
G|-----------------------------------------------------------------|
D|-----------------------------------------------------------------|
A|-----------------------------------------------------------------|
D|-7-------7---\---5-------5---\---3-------3---\---0-------0---5---|
   1 e + a 2 e + a 3 e + a 4 e + a 1 e + a 2 e + a 3 e + a 4 e + a

G|-----------------------------------------------------------------|
D|-----------------------------------------------------------------|
A|-------------------------3---------------------------------------|
D|-7---5---7---5-------5-------3---3-----------0---2h3p2-------5---|
   1 e + a 2 e + a 3 e + a 4 e + a 1 e + a 2 e + a 3 e + a 4 e + a

1:03
G|-----------------------------------------------------------------|
D|-------------------------------------------------------------9---|
A|-----------------------------------------------------------------|
D|-7-------7---\---5-------5---\---3-------3---\---0-------0-------|
   1 e + a 2 e + a 3 e + a 4 e + a 1 e + a 2 e + a 3 e + a 4 e + a

G|-------------------------9-----------------------9h10p9-----------|
D|-10--9---10--9-------9-------7---7-----------7--------------------|
A|------------------------------------------------------------------|
D|------------------------------------------------------------------|
   1 e + a 2 e + a 3 e + a 4 e + a 1 e + a 2 e + a 3 e  + a 4 e + a

1:10
G|-----------------------------------------------------------------|
D|-----------------------------------------------------------------|
A|-----------------------------------------------------------------|
D|-7-------7---\---5-------5---\---3-------3---\---0-------0---5---|
   1 e + a 2 e + a 3 e + a 4 e + a 1 e + a 2 e + a 3 e + a 4 e + a

G|-----------------------------------------------------------------|
D|-----------------------------------------------------------------|
A|-----------------8-------8-------9-------9-------10------10------|
D|-7-------7-------------------------------------------------------|
   1 e + a 2 e + a 3 e + a 4 e + a 1 e + a 2 e + a 3 e + a 4 e + a

1:17
G|-----------------------------------------------------------------|
D|-----------------------------------------------------------------|
A|-----------------------------------------------------------------|
D|-7-------7---\---5-------5---\---3-------3---\---0-------3-------|
   1 e + a 2 e + a 3 e + a 4 e + a 1 e + a 2 e + a 3 e + a 4 e + a

G|-----------------------------------------------------------------|
D|-----------------------------------------------------------------|
A|---------------------------------5-------------------------------|
D|-5---------------------------------------------------------------|
   1 e + a 2 e + a 3 e + a 4 e + a 1 e + a 2 e + a 3 e + a 4 e + a

G|-------------------------------------------------------------------------|
D|-------------------------------------------------------------------------|
A|-3-------------------------------10-10-10--10-10-10--10-10-10--10-10-10--|
D|-------------------------------------------------------------------------|
   1 e + a 2 e + a 3 e + a 4 e + a Tri-pl-et Tri-pl-et Tri-pl-et Tri-pl-et 

1:29
G|-----------------------------------------------------------------|
D|-----------------------------------------------------------------|
A|-5---5---5---5---5---5---5---5---1---1---1---1---1---1---1---1---|
D|-----------------------------------------------------------------|
   1 e + a 2 e + a 3 e + a 4 e + a 1 e + a 2 e + a 3 e + a 4 e + a

G|-----------------------------------------------------14-14-14--14--\----|
D|------------------------------------------------------------------------|
A|-8---8---8---8---8---8---8---8---12-12-12--12-12-12---------------------|
D|------------------------------------------------------------------------|
   1 e + a 2 e + a 3 e + a 4 e + a Tri-pl-et Tri-pl-et Tri-pl-et 4 e + a 

1:36
G|-------------------------------------------------------------------|
D|o-----------------------------------------8-----------------------o|
A|o-5-------0---5---3-------7---8-------------------------------3---o|x7
D|----------------------------------8-----------8---5-------8--------|here
    1 e + a 2 e + a 3 e + a 4 e + a 1 e + a 2 e + a 3 e + a 4 e + a

2:01
G|-----------------------------------------------------------------|
D|-----------------------------------------8-----------------------|
A|-5-------0---5---3-------7---8-----------------------------------|
D|---------------------------------8---------------5----8----3-----|
   1 e + a 2 e + a 3 e + a 4 e + a 1 e + a 2 e + a Tri- pl-  let

2:04
G|-----------------------------------------------------------------|
D|---------2---------------3---------------2---/---10------9-------|
A|-----------------------------------------------------------------|
D|-2-----------2---3-----------3---2-------------------------------|
   1 e + a 2 e + a 3 e + a 4 e + a 1 e + a 2 e + a 3 e + a 4 e + a

G|-----------------------------------------------------------------|
D|-8---\---0---------------0---------------0-----------------------|
A|-----------------1---------------1-------------------------------|
D|-------------------------------------------------8---\---0-------|
   1 e + a 2 e + a 3 e + a 4 e + a 1 e + a 2 e + a 3 e + a 4 e + a

2:13
G|-----------------------------------------------------------------|
D|---------2---------------3---------------2---/---10------9-------|
A|-----------------------------------------------------------------|
D|-2-----------2---3-----------3---2-------------------------------|
   1 e + a 2 e + a 3 e + a 4 e + a 1 e + a 2 e + a 3 e + a 4 e + a

G|-----------------------------------------------------------------|
D|-3---------------3---------------3---------------3---------------|
A|-----------------------------------------------------------------|
D|---3-----3---------3-----3---------3-----3---------3-----3-------|
   1 e + a 2 e + a 3 e + a 4 e + a 1 e + a 2 e + a 3 e + a 4 e + a

2:19
G|-----------------------------------------------------------------|
D|---------2---------------3---------------2---/---10------9-------|
A|-----------------------------------------------------------------|
D|-2-----------2---3-----------3---2-------------------------------|
   1 e + a 2 e + a 3 e + a 4 e + a 1 e + a 2 e + a 3 e + a 4 e + a

G|-----------------------------------------------------------------|
D|-8---\---0---------------0---------------0-----------------------|
A|-----------------1---------------1-------------------------------|
D|-------------------------------------------------8---\---0-------|
   1 e + a 2 e + a 3 e + a 4 e + a 1 e + a 2 e + a 3 e + a 4 e + a

2:26
G|-----------------------------------------------------------------|
D|---------2---------------3---------------2---/---10------9-------|
A|-----------------------------------------------------------------|
D|-2-----------2---3-----------3---2-------------------------------|
   1 e + a 2 e + a 3 e + a 4 e + a 1 e + a 2 e + a 3 e + a 4 e + a

G|-----------------------------------------------------------------|
D|-3---------------3---------------3---------------3---------------|
A|-----------------------------------------------------------------|
D|---3-----3---------3-----3---------3-----3---------3-----5-------|
   1 e + a 2 e + a 3 e + a 4 e + a 1 e + a 2 e + a 3 e + a 4 e + a

2:34
G|-----------------------------------------------------------------|
D|-----------------------------------------------------------------|
A|-------------------------3-----------------------------------3---|
D|-7---\-----------------------3---------------0---2h3p2-----------|
   1 e + a 2 e + a 3 e + a 4 e + a 1 e + a 2 e + a 3 e + a 4 e + a

2:37
G|-----------------------------------------------------------------|
D|-----------------------------------------------------------------|
A|-----------------------------------------------------------------|
D|-7---r---7---\---5-------5---\---3-------3---\---0-------0-------|
   1 e + a 2 e + a 3 e + a 4 e + a 1 e + a 2 e + a 3 e + a 4 e + a

G|-----------------------------------------------------------------|
D|-----------------------------------------------------------------|
A|-----------------------------------------------------------------|
D|-7-------7---\---5-------5---\---3-------3---\---0-------0---5---|
   1 e + a 2 e + a 3 e + a 4 e + a 1 e + a 2 e + a 3 e + a 4 e + a

G|-----------------------------------------------------------------|
D|-----------------------------------------------------------------|
A|-------------------------3---------------------------------------|
D|-7---5---7---5-------5-------3---3-----------0---2h3p2-------/---|
   1 e + a 2 e + a 3 e + a 4 e + a 1 e + a 2 e + a 3 e + a 4 e + a

2:49
G|-----------------------------------------------------------------|
D|-----------------------------------------------------------------|
A|-----------------------------------------------------------------|
D|-7-------7---\---5-------5---\---3-------3---\---0-------0---5---|
   1 e + a 2 e + a 3 e + a 4 e + a 1 e + a 2 e + a 3 e + a 4 e + a

G|-----------------------------------------------------------------|
D|-----------------------------------------------------------------|
A|-----------------8-------8-------9-------9-------10------10------|
D|-7-------7-------------------------------------------------------|
   1 e + a 2 e + a 3 e + a 4 e + a 1 e + a 2 e + a 3 e + a 4 e + a

2:56
G|-----------------------------------------------------------------|
D|-----------------------------------------------------------------|
A|-----------------------------------------------------------------|
D|-7-------7---\---5-------5---\---3-------3---\---0-------3-------|
   1 e + a 2 e + a 3 e + a 4 e + a 1 e + a 2 e + a 3 e + a 4 e + a

G|-----------------------------------------------------------------|
D|-----------------------------------------------------------------|
A|---------------------------------5-------------------------------|
D|-5---------------------------------------------------------------|
   1 e + a 2 e + a 3 e + a 4 e + a 1 e + a 2 e + a 3 e + a 4 e + a

G|-------------------------------------------------------------------------|
D|-------------------------------------------------------------------------|
A|-3-------------------------------10-10-10--10-10-10--10-10-10--10-10-10--|
D|-------------------------------------------------------------------------|
   1 e + a 2 e + a 3 e + a 4 e + a Tri-pl-et Tri-pl-et Tri-pl-et Tri-pl-et 

3:07
G|-----------------------------------------------------------------|
D|-----------------------------------------------------------------|
A|-5---5---5---5---5---5---5---5---1---1---1---1---1---1---1---1---|
D|-----------------------------------------------------------------|
   1 e + a 2 e + a 3 e + a 4 e + a 1 e + a 2 e + a 3 e + a 4 e + a

G|------------------------------------------------------------------------|
D|------------------------------------------------------------------------|
A|-8---8---8---8---8---8---8---8---12-12-12--12-12-12--15-15-15--15---\---|
D|------------------------------------------------------------------------|
   1 e + a 2 e + a 3 e + a 4 e + a Tri-pl-et Tri-pl-et Tri-pl-et 4 e + a 

3:14
G|-----------------------------------------------------------------|
D|-----------------------------------------------------------------|
A|---------------------------------1-------1-------1-------1-------|
D|-0-------0-------0-------0---------------------------------------|
   1 e + a 2 e + a 3 e + a 4 e + a 1 e + a 2 e + a 3 e + a 4 e + a

G|-----------------------------------------------------------------|
D|-----------------------------------------------------------------|
A|-------------------------------------------------7-------6-------|
D|-3-------3-------3-------3-------3-------3-----------------------|
   1 e + a 2 e + a 3 e + a 4 e + a 1 e + a 2 e + a 3 e + a 4 e + a

3:21
G|-----------------------------------------------------------------|
D|-----------------------------------------------------------------|
A|---------------------------------1---1---1-------1---4---1---1---|
D|-0-------0---0---0-------0---0-----------------------------------|
   1 e + a 2 e + a 3 e + a 4 e + a 1 e + a 2 e + a 3 e + a 4 e + a

G|-----------------------------------------------------------------|
D|-----------------------------------------------------------------|
A|---------------------------------------------------------6-------|
D|-3-------3---3---3-------3---3---3-------3---3---2---------------|
   1 e + a 2 e + a 3 e + a 4 e + a 1 e + a 2 e + a 3 e + a 4 e + a

3:28
G|-----------------------------------------------------------------|
D|-----------------------------------------------------------------|
A|---------------------------------1---1---1-------1-------1---1---|
D|-0-------0---0---0-------0---0-----------------------------------|
   1 e + a 2 e + a 3 e + a 4 e + a 1 e + a 2 e + a 3 e + a 4 e + a

G|-----------------------------------------------------------------|
D|-----------------------------------------------------------------|
A|-----------------------------------------------------------------|
D|-3-------3---3---3-------3---3---3-------3---3---2-------1-------|
   1 e + a 2 e + a 3 e + a 4 e + a 1 e + a 2 e + a 3 e + a 4 e + a

3:35
G|-----------------------------------------------------------------|
D|-----------------------------------------------------------------|
A|---------------------------------1---1---1---1---4-------4---1---|
D|-0-------0---0---0-------0---0-----------------------------------|
   1 e + a 2 e + a 3 e + a 4 e + a 1 e + a 2 e + a 3 e + a 4 e + a

G|-----------------------------------------------------------------|
D|-----------------------------------------------------------------|
A|-------------------------------------------------7-------6-------|
D|-3-------3---3---3-------3---3---3-------3---3-------------------|
   1 e + a 2 e + a 3 e + a 4 e + a 1 e + a 2 e + a 3 e + a 4 e + a

3:43
G|-----------------------------------------------------------------|
D|-----------------------------------------------------------------|
A|---------------------------------1---1---1---1---4-------4---1---|
D|-0-------0---0---0-------0---0-----------------------------------|
   1 e + a 2 e + a 3 e + a 4 e + a 1 e + a 2 e + a 3 e + a 4 e + a

G|-------------------------------------------------------------------------|
D|-------------------------------------------------------------------------|
A|-------------------------------------------------------------------------|
D|-3-------3---3---3-------3---3---3-------3---3---2-------1-------0-------|
   1 e + a 2 e + a 3 e + a 4 e + a 1 e + a 2 e + a 3 e + a 4 e + a
Tabbed by Dave Vucko

===============================================================================

Ghuleh / Zombie Queen


0:23
G|-----|-------------------------------------------------------------------|
D|-----|o-----------------------------------------------------------------o|
A|-5---|o-------------5---------------5---2---3-------0---5-----------5---o|
D|-----|--2---------------2------------------------------------------------|
   4 +    1 + 2 + 3 + 4 + 1 + 2 + 3 + 4 + 1 + 2 + 3 + 4 + 1 + 2 + 3 + 4 +

0:48
G|-----------------------------------------------------------------|
D|-----------------------------------------------------------------|
A|-------------5---------------5---2---3-------0---5-------5---5---|
D|-2---------------2-----------------------------------------------|
   1 + 2 + 3 + 4 + 1 + 2 + 3 + 4 + 1 + 2 + 3 + 4 + 1 + 2 + 3 + 4 +

G|-----------------------------------------------------------------|
D|-----------------------------------------------------------------|
A|-------------5---------------5---2---3-------0---5---------------|
D|-2---------------2-----------------------------------------------|
   1 + 2 + 3 + 4 + 1 + 2 + 3 + 4 + 1 + 2 + 3 + 4 + 1 + 2 + 3 + 4 +

1:13
G|-----------------------------------------------------------------|
D|-------------5-5-----------------------------5-5-----------------|
A|-----------------5-5-5-5-5-5-5-5-----------------5-5-5-5-5-5-3-3-|
D|-5-5-5-5-5-5---------------------5-5-5-5-5-5---------------------|
   1 + 2 + 3 + 4 + 1 + 2 + 3 + 4 + 1 + 2 + 3 + 4 + 1 + 2 + 3 + 4 +

G|-------------------------------------------------|
D|---------------------3---------------------------|
A|-------------------3---3---------3---------------|
D|-5-5-5-5-5-5-5-5-3-------------------5-----------|
   1 + 2 + 3 + 4 + 1 + 2 + 3 + 4 + 1 + 2 + 3 + 4 + 

rest

1:41
G|-----|-------------------------------------------------------------------|
D|-----|o-----------------------------------------------------------------o|
A|-5---|o-------------5---------------5---2---3-------0---5-----------5---o|
D|-----|--2---------------2------------------------------------------------|
   4 +    1 + 2 + 3 + 4 + 1 + 2 + 3 + 4 + 1 + 2 + 3 + 4 + 1 + 2 + 3 + 4 +

2:06
G|-----------------------------------------------------------------|
D|-----------------------------------------------------------------|
A|-------------5---------------5---2---3-------0---5-----------5---|
D|-2---------------2-----------------------------------------------|
   1 + 2 + 3 + 4 + 1 + 2 + 3 + 4 + 1 + 2 + 3 + 4 + 1 + 2 + 3 + 4 +
G|-----------------------------------------------------------------|
D|-----------------------------------------------------------------|
A|-------------5---------------5---2---3-------0---5---------------|
D|-2---------------2-----------------------------------------------|
   1 + 2 + 3 + 4 + 1 + 2 + 3 + 4 + 1 + 2 + 3 + 4 + 1 + 2 + 3 + 4 +

2:31
G|---------------------7-----7-7-7---------------------7-----------|
D|---5-------------------------------------------------------------|
A|-----------------5-5---5-5-----------------------5-5---5-5-5-3-3-|
D|-5---5-5-5-5-5-5-----------------5-5-5-5-5-5-5-5-----------------|
   1 + 2 + 3 + 4 + 1 + 2 + 3 + 4 + 1 + 2 + 3 + 4 + 1 + 2 + 3 + 4 +

G|-------------------------------------------------------12---------------|
D|---------------------3------------------------------10----10------------|
A|-------------------3---3---------3---------------8----------------------|
D|-5-5-5-5-5-5-5-5-3-------------------5----------------------------------|
   1 + 2 + 3 + 4 + 1 + 2 + 3 + 4 + 1 + 2 + 3 + 4 + 1  +  2  +  3  +  4  +

G|-------------------------|
D|-10----------------------|
A|-------10-------------\--|
D|-------------------------|
   1  +  2  +  3  +  4  +

Zombie Queen
3:04
G|------------------------------------------------------------------|
D|o---------2-2-------------2-2-------------2-2-------------2-2-----|
A|o-----2-2-----2-2-----2-2-----2-2-----2-2-----2-2-----2-2-----2-2-|
D|--2-2-------------2-2-------------2-2-------------2-2-------------|
    1 + 2 + 3 + 4 + 1 + 2 + 3 + 4 + 1 + 2 + 3 + 4 + 1 + 2 + 3 + 4 +

G|--------------------------------------------------------------------------|
D|---------2-2-----------------5-------------------------------3---2-------o|
A|-----2-2-----2-2-----2-2-3-----------------------------------------------o|
D|-2-2-------------2-2-------------5---\-------------------3----------------|
   1 + 2 + 3 + 4 + 1 + 2 + 3 + 4 + 1 + 2 + 3 + 4 + 1 + 2 + 3 + 4 + 5 + 6 +

3:30
G|-----------------------------------------------------------------|
D|---------2-2-------------2-2-------------------------------------|
A|-----2-2-----2-2-----2-2-----2-2-3-3-3-3---------3-3---------4-4-|
D|-2-2-------------2-2---------------------4-4-4-4-----4-4-3-3-----|
   1 + 2 + 3 + 4 + 1 + 2 + 3 + 4 + 1 + 2 + 3 + 4 + 1 + 2 + 3 + 4 +

G|-------------------------------------------------|
D|-------------------------------------------------|
A|-3-3-3-3---------3-3-3-3-4-4-4-4-5-5-5-5-6-------|
D|---------4-4-4-4---------------------------------|
   1 + 2 + 3 + 4 + 1 + 2 + 3 + 4 + 1 + 2 + 3 + 4 + 

3:40
G|-------------------------------------------------------------------|
D|o-----------------5-----------------------------------------------o|
A|o-7-------------------------------2-------------0-2---------------o|
D|-------------------------------------------------------------------|
    1 + 2 + 3 + 4 + 1 + 2 + 3 + 4 + 1 + 2 + 3 + 4 + 1 + 2 + 3 + 4 +

3:53
G|---------------------------------------------------------------------------------|
D|---------------------------------------------------------------------------------|
A|-2-------5-------5-------------------------------3-3-3-3-3-3-3-3-3-3-3-3-3-3-3-3-|
D|---------------------7-----------2-2-2-2-2-2-2-2---------------------------------|
   1 + 2 + 3 + 4 + 1 + 2 + 3 + 4 + 1 + 2 + 3 + 4 + 1 + 2 + 3 + 4 + 1 + 2 + 3 + 4 +

4:01
G|-------------------------------------------------------------------|
D|o-----------------5-5-5-5-5-5-5-5---------------------------------o|
A|o-7-7-7-7-7-7-7-7-----------------2-2-2-2-2-2-2-0-2-2-2-2-2-2-2-2-o|
D|-------------------------------------------------------------------|
    1 + 2 + 3 + 4 + 1 + 2 + 3 + 4 + 1 + 2 + 3 + 4 + 1 + 2 + 3 + 4 +

G|-----------------------------------------------------------------------------------------|
D|-----------------------------------------------------------------------------------------|
A|-2-------5-------5-------------------------------3-3-3-3-3-3-3-3/15-15-15-15-15-15-15-15-|
D|---------------------7-----------2-2-2-2-2-2-2-2-----------------------------------------|
   1 + 2 + 3 + 4 + 1 + 2 + 3 + 4 + 1 + 2 + 3 + 4 + 1 + 2 + 3 + 4 + 1  +  2  +  3  +  4  +

4:20
G|------------------------------------------------------------------|
D|o---------2-2-------------2-2-------------2-2-------------2-2-----|
A|o-----2-2-----2-2-----2-2-----2-2-----2-2-----2-2-----2-2-----2-2-|
D|--2-2-------------2-2-------------2-2-------------2-2-------------|
    1 + 2 + 3 + 4 + 1 + 2 + 3 + 4 + 1 + 2 + 3 + 4 + 1 + 2 + 3 + 4 +

G|--------------------------------------------------------------------------|
D|---------2-2-----------------5-------------------------------3---2-------o|
A|-----2-2-----2-2-----2-2-3-----------------------------------------------o|
D|-2-2-------------2-2-------------5---\-------------------3----------------|
   1 + 2 + 3 + 4 + 1 + 2 + 3 + 4 + 1 + 2 + 3 + 4 + 1 + 2 + 3 + 4 + 5 + 6 +

4:47
G|-----------------------------------------------------------------|
D|---------2-2-------------2-2-------------2-2-------------2-2-----|
A|-----2-2-----2-2-----2-2-----2-2-----2-2-----2-2-----2-2-----2-2-|
D|-2-2-------------2-2-------------2-2-------------2-2-------------|
   1 + 2 + 3 + 4 + 1 + 2 + 3 + 4 + 1 + 2 + 3 + 4 + 1 + 2 + 3 + 4 +

G|-----------------------------------------------------------------------------------------|
D|---------2-2-----------------5-----------------------------------------------------------|
A|-----2-2-----2-2-----2-2-3---------------------------------------------------------------|
D|-2-2-------------2-2-------------5---\-----------------------------------3-------2-------|
   1 + 2 + 3 + 4 + 1 + 2 + 3 + 4 + 1 + 2 + 3 + 4 + 1 + 2 + 3 + 4 + 1 + 2 + 3 + 4 + 5 + 6 +

5:01
G|-----------------------------------------------------------------|
D|---------2-2-------------2-2-------------------------------------|
A|-----2-2-----2-2-----2-2-----2-2-3-3-3-3---------3-3---------4-4-|
D|-2-2-------------2-2---------------------4-4-4-4-----4-4-3-3-----|
   1 + 2 + 3 + 4 + 1 + 2 + 3 + 4 + 1 + 2 + 3 + 4 + 1 + 2 + 3 + 4 +

G|---------------------------------|
D|---------------------------------|
A|-3-3-3-3---------3-3-3-3-4-4-4---|
D|---------4-4-4-4-----------------|
   1 + 2 + 3 + 4 + 1 + 2 + 3 + 4 + 

5:10
G|-------------------------------------------------------------------|
D|o-----------------------------------------------------------------o|
A|o-5-----------------5-------------5-0-----------------------------o|x3
D|----2-------------5-------------------------------2-3--------------|
    1 + 2 + 3 + 4 + 1 + 2 + 3 + 4 + 1 + 2 + 3 + 4 + 1 + 2 + 3 + 4 + 

G|---------------------------------------------------------------------------------|
D|-----------------------------------------------------------------2---3-----------|
A|-5-----------------5-------------5-0---------------------------------------------|
D|---2-------------5-------------------------------2---3-------------------2-2-----|
   1 + 2 + 3 + 4 + 1 + 2 + 3 + 4 + 1 + 2 + 3 + 4 + 1 + 2 + 3 + 4 + 1 + 2 + 3 + 4 + 

Break

5:51
G|-----------------------------------------------------------------------------------------|
D|-----------------------------------------------------------------------------------------|
A|-7-7-7-7-7-7-7-7/15-15-15-15-15-15-15-15-15-15-15-15-15-15-15-15-15-15-15-15-15-15-15----|
D|-----------------------------------------------------------------------------------------|
   1 + 2 + 3 + 4 + 1  +  2  +  3  +  4  +  1  +  2  +  3  +  4  +  1  +  2  +  3  +  4  +

G|-------------------------------------------------------------------|
D|o-----------------------------------------------------------------o|
A|o---------------------------------2-2-2-2-2-2-2-2-2-2-2-2-2-2-2-2-o|
D|--2-2-2-2-2-2-2-2-5-5-5-5-5-5-5-5----------------------------------|
    1 + 2 + 3 + 4 + 1 + 2 + 3 + 4 + 1 + 2 + 3 + 4 + 1 + 2 + 3 + 4 +

G|---------------------------------------------------------------------------------|
D|---------------------------------------------------------------------------------|
A|-2-2-2-2-5-5-5-5-5-5-----------------------------3-3-3-3-3-3-3-3-3-3-3-3-3-3-3-3-|
D|---------------------7-7-7-7-7-7-2-2-2-2-2-2-2-2---------------------------------|
   1 + 2 + 3 + 4 + 1 + 2 + 3 + 4 + 1 + 2 + 3 + 4 + 1 + 2 + 3 + 4 + 1 + 2 + 3 + 4 +

6:18
G|-------------------------------------------------------------------|
D|o-----------------------------------------------------------------o|
A|o---------------------------------2-2-2-2-2-2-2-2-2-2-2-2-2-2-2-2-o|
D|--2-2-2-2-2-2-2-2-5-5-5-5-5-5-5-5----------------------------------|
    1 + 2 + 3 + 4 + 1 + 2 + 3 + 4 + 1 + 2 + 3 + 4 + 1 + 2 + 3 + 4 +

G|-----------------------------------------------------------------------------------------|
D|-----------------------------------------------------------------------------------------|
A|-2-2-2-2-5-5-5-5-5-5-----------------------------3-3-3-3-3-3-3-3/15-15-15-15-15-15-15-15-|
D|---------------------7-7-7-7-7-7-2-2-2-2-2-2-2-2-----------------------------------------|
   1 + 2 + 3 + 4 + 1 + 2 + 3 + 4 + 1 + 2 + 3 + 4 + 1 + 2 + 3 + 4 + 1  +  2  +  3  +  4  +

6:37
G|-------------------------------------------------------------------|
D|o-----------------------------------------------------------------o|
A|o---------------------------------2-2-2-2-2-2-2-2-2-2-2-2-2-2-2-2-o|
D|--2-2-2-2-2-2-2-2-5-5-5-5-5-5-5-5----------------------------------|
    1 + 2 + 3 + 4 + 1 + 2 + 3 + 4 + 1 + 2 + 3 + 4 + 1 + 2 + 3 + 4 +

G|---------------------------------------------------------------------------------|
D|-----------------7---7---7---7---------------------------------------------------|
A|-2-2-2-2-5-5-5-5---------------------------------3-3-3-3-3-3-3-3-3-3-3-3-3-3-3-3-|
D|---------------------------------2-2-2-2-2-2-2-2---------------------------------|
   1 + 2 + 3 + 4 + 1 + 2 + 3 + 4 + 1 + 2 + 3 + 4 + 1 + 2 + 3 + 4 + 1 + 2 + 3 + 4 +

6:57
G|-------------------------------------------------------------------|
D|o-----------------------------------------------------------------o|
A|o---------------------------------2-2-2-2-2-2-2-2-2-2-2-2-2-2-2-2-o|
D|--2-2-2-2-2-2-2-2-5-5-5-5-5-5-5-5----------------------------------|
    1 + 2 + 3 + 4 + 1 + 2 + 3 + 4 + 1 + 2 + 3 + 4 + 1 + 2 + 3 + 4 +

G|-----------------------------------------------------------------------------------------|
D|-----------------7---7---7---7-----------------------------------------------------------|
A|-2-2-2-2-5-5-5-5---------------------------------3-3-3-3-3-3-3-3/15-15-15-15-15-15-15-15-|
D|---------------------------------2-2-2-2-2-2-2-2-----------------------------------------|
   1 + 2 + 3 + 4 + 1 + 2 + 3 + 4 + 1 + 2 + 3 + 4 + 1 + 2 + 3 + 4 + 1  +  2  +  3  +  4  +

G|------------|
D|------------|
A|------------|
D|-12-14-\----|
Tabbed by Dave Vucko

===============================================================================

Year Zero

0:15
G|-----------------------------------------------------------------|
D|-----------------------------------------------------------------|
A|-------------5-5-------------5-5-------------5-5-------------5-5-|
D|-0-----0---------0-----0---------0-----0---------0-----0---------|
   1 + 2 + 3 + 4 + 1 + 2 + 3 + 4 + 1 + 2 + 3 + 4 + 1 + 2 + 3 + 4 +

G|-----------------------------------------------------------------|
D|-----------------------------------------------------------------|
A|-------------5-5-------------5---------------5-------------------|
D|-0-----0---------0-----0---------0-----0---------0-----0---------|
   1 + 2 + 3 + 4 + 1 + 2 + 3 + 4 + 1 + 2 + 3 + 4 + 1 + 2 + 3 + 4 +

0:31
G|------------------------------------------------------------------|
D|o-----------------------------------------------------------------|
A|o-----------------------------------------------------------------|
D|--0---0---0---0---0---0---0---0---0---0---0---0---0---0---0---0---|
    1 + 2 + 3 + 4 + 1 + 2 + 3 + 4 + 1 + 2 + 3 + 4 + 1 + 2 + 3 + 4 +

G|------------------------------------------------------------------|
D|-----------------------------------------------------------------o|
A|-----------------------------------------------------------------o|
D|-0---0---0---0---0---0---0---0---0---0---0---0---0---0---0---1----|
   1 + 2 + 3 + 4 + 1 + 2 + 3 + 4 + 1 + 2 + 3 + 4 + 1 + 2 + 3 + 4 +

1:02
G|-----------------------------------------------------------------|
D|-----------------------------------------------------------------|
A|-----------------3---3---3---3-----------------------------------|
D|-0---0---0---0-------------------1---1---1---1---0---0---0---0---|
   1 + 2 + 3 + 4 + 1 + 2 + 3 + 4 + 1 + 2 + 3 + 4 + 1 + 2 + 3 + 4 +

G|-----------------------------------------------------------------|
D|-----------------------------------------------------------------|
A|-----------------3---3---3---3---1---1---1---1---9---9-----------|
D|-0---0---0---0---------------------------------------------------|
   1 + 2 + 3 + 4 + 1 + 2 + 3 + 4 + 1 + 2 + 3 + 4 + 1 + 2 + 3 + 4 +

1:18
G|-----------------------------------------------------------------|
D|-----------------------------------------------------------------|
A|-----5---3---5-------5---3---5---3-3-3-3-----3-5-6-6-6-6-6-6-6-6-|
D|-0---------------0-----------------------5-5---------------------|
   1 + 2 + 3 + 4 + 1 + 2 + 3 + 4 + 1 + 2 + 3 + 4 + 1 + 2 + 3 + 4 +

G|-----------------------------------------------------------------|
D|-------------------------------------------------5-5-5-5-5-5-5-5-|
A|-----5---3---5-------5---3---5---3-3-3-3-----3-3-----------------|
D|-0---------------0-----------------------5-5---------------------|
   1 + 2 + 3 + 4 + 1 + 2 + 3 + 4 + 1 + 2 + 3 + 4 + 1 + 2 + 3 + 4 +

G|-----------------------------------------------------------------|
D|-------------------------------------------------------3-5-3-----|
A|-----5---3---5-------5---3---5---3-3-3-3-----3-5-6-6-6-------6-6-|
D|-0---------------0-----------------------5-5---------------------|
   1 + 2 + 3 + 4 + 1 + 2 + 3 + 4 + 1 + 2 + 3 + 4 + 1 + 2 + 3 + 4 +

G|-----------------------------------------------------------------|
D|-------------------------------------------------5-5-5-5-5-5-5-5-|
A|-----5---3---5-------5---3---5---3-3-3-3-----3-3-----------------|
D|-0---------------0-----------------------5-5---------------------|
   1 + 2 + 3 + 4 + 1 + 2 + 3 + 4 + 1 + 2 + 3 + 4 + 1 + 2 + 3 + 4 +

1:51
G|------------------------------------------------------------------|
D|o-----------------------------------------------------------------|
A|o-----------------------------------------------------------------|
D|--0---0---0---0---0---0---0---0---0---0---0---0---0---0---0---0---|
    1 + 2 + 3 + 4 + 1 + 2 + 3 + 4 + 1 + 2 + 3 + 4 + 1 + 2 + 3 + 4 +

G|------------------------------------------------------------------|
D|-----------------------------------------------------------------o|
A|-----------------------------------------------------------------o|
D|-0---0---0---0---0---0---0---0---0---0---0---0---0---0---0---1----|
   1 + 2 + 3 + 4 + 1 + 2 + 3 + 4 + 1 + 2 + 3 + 4 + 1 + 2 + 3 + 4 +

2:23
G|-----------------------------------------------------------------|
D|-----------------------------------------------------------------|
A|-----------------3---3---3---3-----------------------------------|
D|-0---0---0---0-------------------1---1---1---1---0---0---0---0---|
   1 + 2 + 3 + 4 + 1 + 2 + 3 + 4 + 1 + 2 + 3 + 4 + 1 + 2 + 3 + 4 +

G|-----------------------------------------------------------------|
D|-----------------------------------------------------------------|
A|-----------------3---3---3---3---1---1---1---1-------------------|
D|-0---0---0---0---------------------------------------------------|
   1 + 2 + 3 + 4 + 1 + 2 + 3 + 4 + 1 + 2 + 3 + 4 + 1 + 2 + 3 + 4 +

2:39
G|-----------------------------------------------------------------|
D|-----------------------------------------------------------------|
A|-----5---3---5-------5---3---5---3-3-3-3-----3-5-6-6-6-6-6-6-6-6-|
D|-0---------------0-----------------------5-5---------------------|
   1 + 2 + 3 + 4 + 1 + 2 + 3 + 4 + 1 + 2 + 3 + 4 + 1 + 2 + 3 + 4 +

G|---------------------------------------------------------------------------------|
D|-------------------------------------------------5---5---5---5-------------------|
A|-----5---3---5-------5---3---5---3-3-3-3-----3-3---5---5---5---5-4-4-4-4-4-5-4-5-|
D|-0---------------0-----------------------5-5-------------------------------------|
   1 + 2 + 3 + 4 + 1 + 2 + 3 + 4 + 1 + 2 + 3 + 4 + 1 + 2 + 3 + 4 +

2:56
G|-----------------------------------------------------------------|
D|-----------------------------------------------------------------|
A|---5-5-5-5-5-5-0-1-1-1-1-1-1-1-1-0-0-0-0-0-0-0-0-4-4-4-4-4-4-4-5-|
D|-----------------------------------------------------------------|
   1 + 2 + 3 + 4 + 1 + 2 + 3 + 4 + 1 + 2 + 3 + 4 + 1 + 2 + 3 + 4 +

G|-----------------------------------------------------------------|
D|-----------------------------------------------------------------|
A|-5-5-5-5-5-5-5-5-1-1-1-1-1-1-1-1-0-0-0-0-0-0-0-0-3---3---3---3---|
D|---------------------------------------------------5---5---5---5-|
   1 + 2 + 3 + 4 + 1 + 2 + 3 + 4 + 1 + 2 + 3 + 4 + 1 + 2 + 3 + 4 +

G|-----------------------------------------------------------------|
D|-----------------------------------------------------------------|
A|-5-5-5-5-5-5-5-0-1-1-1-1-5-5-5-5-3-3-3-3-3-3-3-3-4-4-4-4-4-4-4-5-|
D|-----------------------------------------------------------------|
   1 + 2 + 3 + 4 + 1 + 2 + 3 + 4 + 1 + 2 + 3 + 4 + 1 + 2 + 3 + 4 +

G|-----------------------------------------------------------------|
D|-----------------------------------------------------------------|
A|-5-5-5-5-5-5-5-0-1-1-1-1-1-1-1-1-0-0-0-0-0-0-0-0-4-4-4-4-4-4-4-5-|
D|-----------------------------------------------------------------|
   1 + 2 + 3 + 4 + 1 + 2 + 3 + 4 + 1 + 2 + 3 + 4 + 1 + 2 + 3 + 4 +

3:28
G|-----------------------------------------------------------------|
D|-------------2-3-------------------------------------------------|
A|-----------------1-1-1-1-1-1-1-1-0-0-0-0-0-0-0-0-4-4-4-4-4-4-4-5-|
D|---0-3-0-3-0-----------------------------------------------------|
   1 + 2 + 3 + 4 + 1 + 2 + 3 + 4 + 1 + 2 + 3 + 4 + 1 + 2 + 3 + 4 +

G|-----------------------------------------------------------------|
D|-----------------------------------------------------------------|
A|-5-5-5-5-5-5-5-5-1-1-1-1-1-1-1-1-0-0-0-0-0-0-0-0-3---3---3---3---|
D|---------------------------------------------------5---5---5---5-|
   1 + 2 + 3 + 4 + 1 + 2 + 3 + 4 + 1 + 2 + 3 + 4 + 1 + 2 + 3 + 4 +

G|-----------------------------------------------------------------|
D|-----------------------------------------------------------------|
A|-5-5-5-5-5-5-5-0-1-1-1-1-5-5-5-5-3-3-3-3-3-3-3---0-0-0-0-0-0-0-5-|
D|-----------------------------------------------5-----------------|
   1 + 2 + 3 + 4 + 1 + 2 + 3 + 4 + 1 + 2 + 3 + 4 + 1 + 2 + 3 + 4 +

G|-----------------------------------------------------------------|
D|-------------------------------------------------------0-2-3-5-7-|
A|-5-5-5-5-5-5-5-5-1-1-1-1-1-3-1-1-0-0-0-0-0-0-0-0-0-1-3-----------|
D|-----------------------------------------------------------------|
   1 + 2 + 3 + 4 + 1 + 2 + 3 + 4 + 1 + 2 + 3 + 4 + 1 + 2 + 3 + 4 +

4:00
G|-----------------------------------------------------------------|
D|-----------------------------------------------------------------|
A|---------------------------------3-3-3-3-3-3-3-3-----------------|
D|-0-0-------------0-------------------------------1-1-1-1-1-1-1-1-|
   1 + 2 + 3 + 4 + 1 + 2 + 3 + 4 + 1 + 2 + 3 + 4 + 1 + 2 + 3 + 4 +

G|-----------------------------------------------------------------|
D|-----------------------------------------------3-5-5-5-5-5-5-5-5-|
A|-----5-5-3-3-5-5-----5-5-3-3-5-5-3-3-3-3-3-3-3-------------------|
D|-0-0-------------0-0---------------------------------------------|
   1 + 2 + 3 + 4 + 1 + 2 + 3 + 4 + 1 + 2 + 3 + 4 + 1 + 2 + 3 + 4 +

G|------------------------------------------------------------------|
D|o-----------------------------------------------------------------|
A|o-----5-5-3-3-5-5-----5-5-3-3-5-5-3-3-3-3-3-3-3-3-----------------|
D|--0-0-------------0-0-----------------------------1-1-1-1-1-1-1-1-|
    1 + 2 + 3 + 4 + 1 + 2 + 3 + 4 + 1 + 2 + 3 + 4 + 1 + 2 + 3 + 4 +

G|------------------------------------------------------------------|
D|-----------------------------------------------3-5-5-5-5-5-5-5-5-o|
A|-----5-5-3-3-5-5-----5-5-3-3-5-5-3-3-3-3-3-3-3-------------------o|
D|-0-0-------------0-0----------------------------------------------|
   1 + 2 + 3 + 4 + 1 + 2 + 3 + 4 + 1 + 2 + 3 + 4 + 1 + 2 + 3 + 4 +
Tabbed by Dave Vucko

===============================================================================

Body and Blood

0:11
G|----------------------------------------------------------------------|
D|----------------------------------------------------------------------|
A|----------------------------------------------------------------------|
D|-0-------------------------------0-0-0-0-0-0-0-0-0---------------12-\-|
   4 + 1 + 2 + 3 + 4 + 1 + 2 + 3 + 4 + 1 + 2 + 3 + 4 + 1 + 2 + 3 + 4 +

0:20
G|-----------------------------------------------------------------|
D|-----5-------5-------5---------1-----8-------8-------8-------8---|
A|---5-----------5---5---------1-----8-----------8---8-----------8-|
D|-5-----5---5-----5-----5---1-----8-----8---8-----8-----8---8-----|
   1 + 2 + 3 + 4 + 1 + 2 + 3 + 4 + 1 + 2 + 3 + 4 + 1 + 2 + 3 + 4 +

G|-------7---------------------8-----------------------7-7---7-7-------7-7---7-7---|
D|-----7-----7-5-7-----------8---8-----5-------3-----7-----------7---7-----------7-|
A|---7-----------------5-6-----------5-----------3-5---------------5---------------|
D|-7---------------5-5-------------5-----3---3-------------------------------------|
   1 + 2 + 3 + 4 + 1 + 2 + 3 + 4 + 1 + 2 + 3 + 4 + 1 + 2 + 3 + 4 + 1 + 2 + 3 + 4 +

0:40
G|-----------------------------------------------------------------|
D|-----5-------5-------5---------1-----8-------8-------8-------8---|
A|---5-----------5---5---------1-----8-----------8---8-----------8-|
D|-5-----5---5-----5-----5---1-----8-----8---8-----8-----8---8-----|
   1 + 2 + 3 + 4 + 1 + 2 + 3 + 4 + 1 + 2 + 3 + 4 + 1 + 2 + 3 + 4 +

G|-------7---------------------8-----------------------7-7---7-7-------7-7---------|
D|-----7-----7-5-7-----------8---8-----5-------3-----7-----------7---7-------------|
A|---7-----------------5-6-----------5-----------3-5---------------5---------------|
D|-7---------------5-5-------------5-----3---3---------------------------------12\-|
   1 + 2 + 3 + 4 + 1 + 2 + 3 + 4 + 1 + 2 + 3 + 4 + 1 + 2 + 3 + 4 + 1 + 2 + 3 + 4 +

1:00
G|-----------------------------------------------------------------|
D|-----------------------------------------------------------------|
A|-3-3-0-1---------------6---6-6---3-3---1-------------------------|
D|-----------3-3---5-5-/---------------------3-3---5-5---1-1-1-1-1-|
   1 + 2 + 3 + 4 + 1 + 2 + 3 + 4 + 1 + 2 + 3 + 4 + 1 + 2 + 3 + 4 +

G|-------------------------------------------------------------------|
D|o-----------------------------------------------------------------o|
A|o-3-3---1---------------6---6-6---3-3---1-------------------------o|
D|------------3-3---5-5-/---------------------3-3---5-5---1-1-1-1-1--|
    1 + 2 + 3 + 4 + 1 + 2 + 3 + 4 + 1 + 2 + 3 + 4 + 1 + 2 + 3 + 4 +

G|-----------------------------------------------------------------|
D|-----------------------------------------------------------------|
A|-3-3---1-------------------------3--1----------------------------|
D|-----------3-3---5-5-\-1---1-1---------3-----3---0---------------|
   1 + 2 + 3 + 4 + 1 + 2 + 3 + 4 + Triplet 3 + 4 + 1 + 2 + 3 + 4 +

1:35
G|-----------------------------------------------------------------|
D|-----5-------5-------5---------1-----8-------8-------8-------8---|
A|---5-----------5---5---------1-----8-----------8---8-----------8-|
D|-5-----5---5-----5-----5---1-----8-----8---8-----8-----8---8-----|
   1 + 2 + 3 + 4 + 1 + 2 + 3 + 4 + 1 + 2 + 3 + 4 + 1 + 2 + 3 + 4 +

G|-------7---------------------8-----------------------7-7---7-7-------7-7---7-7---|
D|-----7-----7-5-7-----------8---8-----5-------3-----7-----------7---7-----------7-|
A|---7-----------------5-6-----------5-----------3-5---------------5---------------|
D|-7---------------5-5-------------5-----3---3-------------------------------------|
   1 + 2 + 3 + 4 + 1 + 2 + 3 + 4 + 1 + 2 + 3 + 4 + 1 + 2 + 3 + 4 + 1 + 2 + 3 + 4 +

1:55
G|-----------------------------------------------------------------|
D|-----5-------------------------------8-------8-------8-------8---|
A|---5---------------------6---6-----8-----------8---8-----------8-|
D|-5-----5---5---------------------8-----8---8-----8-----8---8-----|
   1 + 2 + 3 + 4 + 1 + 2 + 3 + 4 + 1 + 2 + 3 + 4 + 1 + 2 + 3 + 4 +

G|-------7---------------------8-----------------------7-----------|
D|-----7-----7-5-7-----------8---8-----5-------3-----7-------------|
A|---7-----------------5-6-----------5-----------3-5-----5---------|
D|-7---------------5-5-------------5-----3---3---------------------|
   1 + 2 + 3 + 4 + 1 + 2 + 3 + 4 + 1 + 2 + 3 + 4 + 1 + 2 + 3 + 4 + 

2:11
G|-------------------------------------------------------------------|
D|o-----------------------------------------------------------------o|
A|o-3-3---1---------------6---6-6---3-3---1-------------------------o|x3
D|------------3-3---5-5-/---------------------3-3---5-5---1-1-1-1-1--|
    1 + 2 + 3 + 4 + 1 + 2 + 3 + 4 + 1 + 2 + 3 + 4 + 1 + 2 + 3 + 4 +

G|-------------------------------------------------|
D|-------------------------------------------------|
A|-3-3---1-------------------------3--1------------|
D|-----------3-3---5-5-\-1---1-1---------3---3-3-3-|
   1 + 2 + 3 + 4 + 1 + 2 + 3 + 4 + Triplet 3 + 4 + 

2:44
G|-----------------------------------------------------------------|
D|-----------------------------------------------------------------|
A|---------------------------------5-5-5-5-5-5-5-5-5-5-5-5-5-5-5-5-|
D|-5-5-5-5-5-5-5-5-6-6-6-6-6-6-6-6---------------------------------|
   1 + 2 + 3 + 4 + 1 + 2 + 3 + 4 + 1 + 2 + 3 + 4 + 1 + 2 + 3 + 4 +

G|---------------------------------------------------------------------------------|
D|---------------------------------------------------------------------------------|
A|-----------------------------3-4-5-5-5-5-5-5-5-5-5-5-5-5-5-5-5-5-----------------|
D|-5-5-5-5-5-5-5-5-6-6-6-6-6-6-------------------------------------0-0-0-0-0-0-12\-|
   1 + 2 + 3 + 4 + 1 + 2 + 3 + 4 + 1 + 2 + 3 + 4 + 1 + 2 + 3 + 4 + 1 + 2 + 3 + 4 +

3:04
G|-----------------------------------------------------------------|
D|-----------------------------------------------------------------|
A|-3-3---1-------------------------3-3---1---------------6-6-6-6-6-|
D|-----------3-3---5-5-\-1---1-1-------------3-3---5-5-------------|
   1 + 2 + 3 + 4 + 1 + 2 + 3 + 4 + 1 + 2 + 3 + 4 + 1 + 2 + 3 + 4 +

G|-----------------------------------------------------------------|
D|-----------------------------------------------------------------|
A|-3-3---1-------------------------3-3---1---------------6-6-------|
D|-----------3-3---5-5-\-1---1-1-------------3-3---5-5-/-----------|
   1 + 2 + 3 + 4 + 1 + 2 + 3 + 4 + 1 + 2 + 3 + 4 + 1 + 2 + 3 + 4 +

3:21
G|-----------------------------------------------------------------|
D|-----------------------------------------------------------------|
A|-3-3---1---------------6---6-6---3-3---1-------------------------|
D|-----------3-3---5-5-/---------------------3-3---5-5---1-1-1-1-1-|
   1 + 2 + 3 + 4 + 1 + 2 + 3 + 4 + 1 + 2 + 3 + 4 + 1 + 2 + 3 + 4 +

G|-----------------------------------------------------------------|
D|-----------------------------------------------------------------|
A|-3-3---1-------------------------3--1----------------------------|
D|-----------3-3---5-5-\-1---1-1---------3-------------------------|
   1 + 2 + 3 + 4 + 1 + 2 + 3 + 4 + Triplet 3 + 4 + 1 + 2 + 3 + 4 +
Tabbed by Dave Vucko

===============================================================================

Idolatrine

Eighth notes are played
D|-3--3-3--3-3--3-3--3-
Instead of 
D|-3-3-3-3-3-3-3-3-


G|-------------------------------------------------------------------|
D|-3h5-------5-----3h5-------5-----3h5-------5-----3h5-------5-----3h|
A|-------------------------------------------------------------------|
D|-------------------------------------------------------------------|
   + 1 + 2 + 3 + 4 + 1 + 2 + 3 + 4 + 1 + 2 + 3 + 4 + 1 + 2 + 3 + 4 +

G|-----------------------------------------------------------------|
D|-5-------5-----3h5-------5-----3h5-------5-----3h5-------5-------|
A|-----------------------------------------------------------------|
D|---------------------------------------------------------------3h|
   1 + 2 + 3 + 4 + 1 + 2 + 3 + 4 + 1 + 2 + 3 + 4 + 1 + 2 + 3 + 4 +

0:16
G|-----------------------------------------------------------------|
D|-----------------------------------------------------------------|
A|---------------------------------------------------------------1h|
D|-5---5---5-5-5-3h5---5---5-5-5-3h5---5---5-5-5-3h5---5---5-5-5---|
   1 + 2 + 3 + 4 + 1 + 2 + 3 + 4 + 1 + 2 + 3 + 4 + 1 + 2 + 3 + 4 +

G|-----------------------------------------------------------------|
D|-----------------------------------------------------------------|
A|-3---3---3-3-3-1h3---3---3-3-3-----------------------------------|
D|-------------------------------3h5---5---5-5-5-3h5---5---5-5-5-3h|
   1 + 2 + 3 + 4 + 1 + 2 + 3 + 4 + 1 + 2 + 3 + 4 + 1 + 2 + 3 + 4 +

G|-----------------------------------------------------------------|
D|-----------------------------------------------------------------|
A|---------------------------------------------------------------1h|
D|-5---5---5-5-5-3h5---5---5-5-5-3h5---5---5-5-5-3h5---5---5-5-5---|
   1 + 2 + 3 + 4 + 1 + 2 + 3 + 4 + 1 + 2 + 3 + 4 + 1 + 2 + 3 + 4 +

G|-----------------------------------------------------------------|
D|-----------------------------------------------------------------|
A|-3---3---3-3-3-5h6---6---6-6-6-------------------------------1---|
D|-------------------------------3h5---5---5-5-5-3h5---5---5-------|
   1 + 2 + 3 + 4 + 1 + 2 + 3 + 4 + 1 + 2 + 3 + 4 + 1 + 2 + 3 + 4 +

0:43
G|-----------------------------------------------------------------|
D|---------5---------------3-------------------1-------2-------1---|
A|-3---6-------6-------3-------3-----------------------------------|
D|-----------------3---------------5---5---1-------2-------1-------|
   1 + 2 + 3 + 4 + 1 + 2 + 3 + 4 + 1 + 2 + 3 + 4 + 1 + 2 + 3 + 4 +

G|-----------------------------------------------------------------|
D|---------5---------------3---------------------------------------|
A|-3---6-------6-------3-------3---------------------------------1h|
D|-----------------3---------------5---5---5-5-5-3h5---5---5-5-5---|
   1 + 2 + 3 + 4 + 1 + 2 + 3 + 4 + 1 + 2 + 3 + 4 + 1 + 2 + 3 + 4 +

G|-----------------------------------------------------------------|
D|---------5---------------3-----------5-------1-------2-------1---|
A|-3---6-------6-------3-------3-----------------------------------|
D|-----------------3---------------5-------1-------2-------1-------|
   1 + 2 + 3 + 4 + 1 + 2 + 3 + 4 + 1 + 2 + 3 + 4 + 1 + 2 + 3 + 4 +

G|-------------------------------------------------------------------------7---|
D|---------5-----------3-------1-------2-------3----------------------5--7-----|
A|-3---6-------6--------------------------------------3--5----3--5-5-----------|
D|-----------------3-------1-------2-------3-------5-------5-------------------|
   1 + 2 + 3 + 4 + 1 + 2 + 3 + 4 + 1 + 2 + 3 + 4 + Triplet Triplet Triplet 4 +

G|-----------------------------------------------------------------|
D|-5---5---5-----3h5---5---5-----3h5---5---5-----3h5---5---5---\---|
A|-----------------------------------------------------------------|
D|-----------------------------------------------------------------|
   1 + 2 + 3 + 4 + 1 + 2 + 3 + 4 + 1 + 2 + 3 + 4 + 1 + 2 + 3 + 4 +

1:16
G|-----------------------------------------------------------------|
D|-----------------------------------------------------------------|
A|---------------------------------------------------------------1h|
D|-5---5---5-5-5-3h5---5---5-5-5-3h5---5---5-5-5-3h5---5---5-5-5---|
   1 + 2 + 3 + 4 + 1 + 2 + 3 + 4 + 1 + 2 + 3 + 4 + 1 + 2 + 3 + 4 +

G|-----------------------------------------------------------------|
D|-----------------------------------------------------------------|
A|-3---3---3-3-3-1h3---3---3-3-3-----------------------------------|
D|-------------------------------3h5---5---5-5-5-3h5---5---5-5-5-3h|
   1 + 2 + 3 + 4 + 1 + 2 + 3 + 4 + 1 + 2 + 3 + 4 + 1 + 2 + 3 + 4 +

G|-----------------------------------------------------------------|
D|-----------------------------------------------------------------|
A|---------------------------------------------------------------1h|
D|-5---5---5-5-5-3h5---5---5-5-5-3h5---5---5-5-5-3h5---5---5-5-5---|
   1 + 2 + 3 + 4 + 1 + 2 + 3 + 4 + 1 + 2 + 3 + 4 + 1 + 2 + 3 + 4 +

G|-----------------------------------------------------------------|
D|-----------------------------------------------------------------|
A|-3---3---3-3-3-5h6---6---6-6-6---------------------------1---2---|
D|-------------------------------3h5---5---5-5-5-3h5---5-----------|
   1 + 2 + 3 + 4 + 1 + 2 + 3 + 4 + 1 + 2 + 3 + 4 + 1 + 2 + 3 + 4 +

1:42
G|-----------------------------------------------------------------|
D|---------5---------------3-------------------1-------2-------1---|
A|-3---6-------6-------3-------3-----------------------------------|
D|-----------------3---------------5---5---1-------2-------1-------|
   1 + 2 + 3 + 4 + 1 + 2 + 3 + 4 + 1 + 2 + 3 + 4 + 1 + 2 + 3 + 4 +

G|-----------------------------------------------------------------|
D|---------5---------------3---------------------------------------|
A|-3---6-------6-------3-------3---------------------------------1h|
D|-----------------3---------------5---5---5-5-5-3h5---5---5-5-5---|
   1 + 2 + 3 + 4 + 1 + 2 + 3 + 4 + 1 + 2 + 3 + 4 + 1 + 2 + 3 + 4 +

G|-----------------------------------------------------------------|
D|---------5---------------3-----------5-------1-------2-------1---|
A|-3---6-------6-------3-------3-----------------------------------|
D|-----------------3---------------5-------1-------2-------1-------|
   1 + 2 + 3 + 4 + 1 + 2 + 3 + 4 + 1 + 2 + 3 + 4 + 1 + 2 + 3 + 4 +

G|-------------------------------------------------------------------|
D|---------5-----------3-------1-------2-------3---------------------|
A|-3---6-------6--------------------------------------------5--5--5--|
D|-----------------3-------1-------2-------3-------0--0--0-----------|
   1 + 2 + 3 + 4 + 1 + 2 + 3 + 4 + 1 + 2 + 3 + 4 + Triplet  Triplet 

G|---------------------------------|
D|---------------------------------|
A|---------------------------------|
D|-5---5---5-5-5-3h5---5---5---/\--|
   1 + 2 + 3 + 4 + 1 + 2 + 3 + 4 +

2:13
G|-------------------------------------------------------------------|
D|o---------------------3-4---4-4-----------------------------------o|
A|o-----------------1-4-------------6-6-6-6-6-6-6-6-----------------o|x3
D|--4---4---4---4-----------------------------------6-6-6-6-6-6-6-6--|
    1 + 2 + 3 + 4 + 1 + 2 + 3 + 4 + 1 + 2 + 3 + 4 + 1 + 2 + 3 + 4 +

G|-----------------------------------------------------------------|
D|-----------------------------------------------------------------|
A|---------------------------------1-------------------------------|
D|-4---4---4---4---3---3---3---3-----------------------------------|
   1 + 2 + 3 + 4 + 1 + 2 + 3 + 4 + 1 + 2 + 3 + 4 + 1 + 2 + 3 + 4 +

2:39
G|-----------------------------------------------------------------|
D|-----------------------------------------------------------------|
A|-----------------------------------------------------------------|
D|-1---1---1-0-1-3-5---5---5-4-5-3-1---1---1-0-1-3-5---5---5-4-5-3-|
   1 + 2 + 3 + 4 + 1 + 2 + 3 + 4 + 1 + 2 + 3 + 4 + 1 + 2 + 3 + 4 +

G|-----------------------------------------------------------------|
D|-----------------------------------------------------------------|
A|-----------------------------------------------------------------|
D|-1---1---1-0-1-3-5---5---5-4-5-3-0---0---0-0-0-0-0---0---0-0-0-0-|
   1 + 2 + 3 + 4 + 1 + 2 + 3 + 4 + 1 + 2 + 3 + 4 + 1 + 2 + 3 + 4 +

2:52
G|-----------------------------------------------------------------|
D|-----------------------------------------------------------------|
A|-----------------------------5---------------------------5-------|
D|-1---3---5---8---5---7---8-------1---3---5---8---5---8-------8---|
   1 + 2 + 3 + 4 + 1 + 2 + 3 + 4 + 1 + 2 + 3 + 4 + 1 + 2 + 3 + 4 +

G|-----------------------------------------------------------------|
D|-------------------------------------3-----------3---------------|
A|-----------------------------5-----------1---3-----------1---2---|
D|-1---3---5---8---5---7---8-------3-------------------3-----------|
   1 + 2 + 3 + 4 + 1 + 2 + 3 + 4 + 1 + 2 + 3 + 4 + 1 + 2 + 3 + 4 +

3:06
G|-----------------------------------------------------------------|
D|---------5---------------3-----------5-------1-------2-------1---|
A|-3---6-------6-------3-------3-----------------------------------|
D|-----------------3---------------5-------1-------2-------1-------|
   1 + 2 + 3 + 4 + 1 + 2 + 3 + 4 + 1 + 2 + 3 + 4 + 1 + 2 + 3 + 4 +

G|-----------------------------------------------------------------------------------|
D|---------5---------------3---------------------------------------------------------|
A|-3---6-------6-------3-------3-----------------------------------------------------|
D|-----------------3-------------3h5---5---5-5-5-3/17-17-17--17-17-17--17-17-17--17\-|
   1 + 2 + 3 + 4 + 1 + 2 + 3 + 4 + 1 + 2 + 3 + 4 + Triplet   Triplet   Triplet   4 +

3:19
G|-------------------------------------------------------------8---|
D|---------5-------------------------------------------5---8-------|
A|-3---6-------6-------1---3---5---------------5---7---------------|
D|-----------------3---------------5---7---8-----------------------|
   1 + 2 + 3 + 4 + 1 + 2 + 3 + 4 + 1 + 2 + 3 + 4 + 1 + 2 + 3 + 4 +

G|-----------------------------------------------------------------|
D|---------5---------------3---------------5-----------------------|
A|-3---6-------6-------3-------3-------5-------5-----6-6-6-6-6-6-6-|
D|-----------------3---------------5-------------------------------|
   1 + 2 + 3 + 4 + 1 + 2 + 3 + 4 + 1 + 2 + 3 + 4 + 1 + 2 + 3 + 4 +

3:32
G|-------------------------------------------------------------------|
D|o-----------------------------------------------------------------o|
A|o---------------------5-6---6-6---3-3-3-3-3-3-3-3-----------------o|x3
D|--1---1---1---1---5-8-----------------------------3-3-3-3-3-3-3-3--|
    1 + 2 + 3 + 4 + 1 + 2 + 3 + 4 + 1 + 2 + 3 + 4 + 1 + 2 + 3 + 4 +

3:53
G|-----------------------------------------------------------------|
D|-----------------------------------------------------------------|
A|---------------------------------3-3-3-3-3-3-3-3-----------------|
D|-1---1---1---1---5---5---1-1-1-------------------3-3-3-3-3-3-3-3-|
   1 + 2 + 3 + 4 + 1 + 2 + 3 + 4 + 1 + 2 + 3 + 4 + 1 + 2 + 3 + 4 +

G|-----------------------------------------------------------------|
D|-----------------------------------------------------------------|
A|---------------------5-6---6-6---3-3-3-3-3-3-3-3-----------------|
D|-1---1---1---1---5-8-----------------------------3-3-3-3-3-3-3-3-|
   1 + 2 + 3 + 4 + 1 + 2 + 3 + 4 + 1 + 2 + 3 + 4 + 1 + 2 + 3 + 4 +

G|-----------------------------------------------------------------|
D|-------------------------------------------------7-------5-------|
A|-----------------------------------------5-----------------------|
D|-1---1---1---1---0---0---0---0---5-------------------------------|
   1 + 2 + 3 + 4 + 1 + 2 + 3 + 4 + 1 + 2 + 3 + 4 + 1 + 2 + 3 + 4 +
Tabbed by Dave Vucko

===============================================================================

Depth of Satan's Eyes


G|-----------------------------------------------------------------|
D|-----------------------------------------------------------------|
A|-----5-5-----5-5-----5-5-----5-5-----5-5-----5-5-----5-5-----5-5-|
D|-----------------------------------------------------------------|
   1 + 2 + 3 + 4 + 1 + 2 + 3 + 4 + 1 + 2 + 3 + 4 + 1 + 2 + 3 + 4 +

G|-----------------------------------------------------------------|
D|-----------------------------------------------------------------|
A|-----5-5-----5-5-----5-5-----5-5-----5-5-----5-\-----------------|
D|-----------------------------------------------------------------|
   1 + 2 + 3 + 4 + 1 + 2 + 3 + 4 + 1 + 2 + 3 + 4 + 1 + 2 + 3 + 4 +

0:14
G|------------------------------------------------------------------|
D|o-----------------------------------------------------------------|
A|o-5-------3-----------------------5-------3-------------------1-3-|
D|------0-0-----0-0-6---0-0-1-1-0-0-----0-0-----0-0-6---0-3-4-6-----|
    1 + 2 + 3 + 4 + 1 + 2 + 3 + 4 + 1 + 2 + 3 + 4 + 1 + 2 + 3 + 4 +

G|--------------------------------------------------------------|
D|-----------------------------------------------------------6-o|
A|-5-------3-----------------------5-------3-----------1-3-5---o|x3
D|-----0-0-----0-0-6---0-0-1-1-0-0-----0-0-----0-3-4-6----------|
   1 + 2 + 3 + 4 + 1 + 2 + 3 + 4 + 1 + 2 + 3 + 4 + 1 + 2 + 3 +

0:58
G|---------------------------------------------------------10--\---|
D|-9---9---9-------9---12--11--9---8---8---8-------8---8-----------|
A|-----------------------------------------------------------------|
D|-----------------------------------------------------------------|
   1 e + a 2 e + a 3 e + a 4 e + a 1 e + a 2 e + a 3 e + a 4 e + a 

1:02
G|------------------------------------------------------------------|
D|o-----------------------------------------------------------------|
A|o---------6-------5---------------5-------6-------5---------------|
D|--0-0-0-0---0-0-0---0-0-0-6-6-6-6---0-0-0---0-0-0---0-0-0-6-6-6-6-|
    1 + 2 + 3 + 4 + 1 + 2 + 3 + 4 + 1 + 2 + 3 + 4 + 1 + 2 + 3 + 4 +

G|------------------------------------------------------------------|
D|-----6-8-----7-8-----8-10----6-8---------------------------------o|
A|-----------------8-8-----6-6-----5-5-7-8-------------------------o|
D|---------8-8-----------------------------6-6-6---7-7-7-7-7-7-3-1--|
   1 + 2 + 3 + 4 + 1 + 2 + 3 + 4 + 1 + 2 + 3 + 4 + 1 + 2 + 3 + 4 +

1:33
G|-----------------------------------------------------------------|
D|-----------------------------------------------------------------|
A|-----------------------------------------------------------------|
D|-----0-0-----0-0---------------------0-0-------------------------|
   1 + 2 + 3 + 4 + 1 + 2 + 3 + 4 + 1 + 2 + 3 + 4 + 1 + 2 + 3 + 4 +

1:41
G|---------------------------------------------|
D|---------------------------------------2-2-2-|
A|-1-------1-------1-------1---2-----1---------|
D|-----1-1-----1-1-----1-1---3-----1---1-------|
   1 + 2 + 3 + 4 + 1 + 2 + 3 + 4 + 1 + 2 + 3 + 

G|---------------------------------------------|
D|---------------------------------------2-----|
A|-1-------1-------1-------1---2-----1-1-------|
D|-----1-1-----1-1-----1-1---3-----1-----------|
   1 + 2 + 3 + 4 + 1 + 2 + 3 + 4 + 1 + 2 + 3 + 

G|---------------------------------------------|
D|---------------------------------------2-2-2-|
A|-1-------1-------1-------1---2-----1---------|
D|-----1-1-----1-1-----1-1---3-----1---1-------|
   1 + 2 + 3 + 4 + 1 + 2 + 3 + 4 + 1 + 2 + 3 + 

G|-------------------------------------------------|
D|-------------------------------------------------|
A|-1-------1-------1-------1---2-----5---5---------|
D|-----1-1-----1-1-----1-1---3-----1---------------|
   1 + 2 + 3 + 4 + 1 + 2 + 3 + 4 + 1 + 2 + 3 + 4 +

2:02
G|-----------------------------------------------------------|
D|o-------------------------------5---5-----7-7-----9-9-----o|
A|o-4-4---0---0-------------4-4-----------------------------o|x3
D|------------------3-3--------------------------------------|
    1 + 2 + 3 + 4 + 1 + 2 + 1 + 2 + 3 + 4 + 1 + 2 + 3 + 4 + 

G|---------------------------------------------------------|
D|-------------------------------5---5-----7-7-7-7-9-9-9-9-|
A|-4-4---0---0-------------4-4-----------------------------|
D|-----------------3-3-------------------------------------|
   1 + 2 + 3 + 4 + 1 + 2 + 1 + 2 + 3 + 4 + 1 + 2 + 3 + 4 +

2:29
G|------------------------------------------------------------------|
D|o-----------------------------------------------------------------|
A|o-5-------3-----------------------5-------3-------------------1-3-|
D|------0-0-----0-0-6---0-0-1-1-0-0-----0-0-----0-0-6---0-3-4-6-----|
    1 + 2 + 3 + 4 + 1 + 2 + 3 + 4 + 1 + 2 + 3 + 4 + 1 + 2 + 3 + 4 +

G|--------------------------------------------------------------|
D|-----------------------------------------------------------6-o|
A|-5-------3-----------------------5-------3-----------1-3-5---o|x3
D|-----0-0-----0-0-6---0-0-1-1-0-0-----0-0-----0-3-4-6----------|
   1 + 2 + 3 + 4 + 1 + 2 + 3 + 4 + 1 + 2 + 3 + 4 + 1 + 2 + 3 +

0:58
G|---------------------------------------------------------10--\---|
D|-9---9---9-------9---12--11--9---8---8---8-------8---8-----------|
A|-----------------------------------------------------------------|
D|-----------------------------------------------------------------|
   1 e + a 2 e + a 3 e + a 4 e + a 1 e + a 2 e + a 3 e + a 4 e + a 

rest

3:21
G|------------------------------------------------------------------|
D|o-----------------------------------------------------------------|
A|o---------6-------5---------------5-------6-------5---------------|
D|--0-0-0-0---0-0-0---0-0-0-6-6-6-6---0-0-0---0-0-0---0-0-0-6-6-6-6-|
    1 + 2 + 3 + 4 + 1 + 2 + 3 + 4 + 1 + 2 + 3 + 4 + 1 + 2 + 3 + 4 +

G|------------------------------------------------------------------|
D|-----6-8-----7-8-----8-10----6-8---------------------------------o|
A|-5-5-------------8-8-----6-6-----5-5-7-8-------------------------o|x3
D|---------8-8-----------------------------6-6-6-6-7-7-7-7-7-7-3-1--|
   1 + 2 + 3 + 4 + 1 + 2 + 3 + 4 + 1 + 2 + 3 + 4 + 1 + 2 + 3 + 4 +

4:07
G|-----------------------------------------------------------------|
D|-----------------------------------------------------------------|
A|-----------------2-2-2-2-2-2-2-2-----------------2-2-2-2-2-2-2-2-|
D|-0-0-0-0-3-3-3-3-----------------0-0-0-0-3-3-3-3-----------------|
   1 + 2 + 3 + 4 + 1 + 2 + 3 + 4 + 1 + 2 + 3 + 4 + 1 + 2 + 3 + 4 +

G|---------------------------------------------------------8--------|
D|-----------------------------------------------------6-8---8------|
A|-----------------1-1-1-1-3-3-3-3-5-5-5-5-5-5-5-5---6---------10-8-|
D|-0-0-0-0-3-3-3-3--------------------------------------------------|
   1 + 2 + 3 + 4 + 1 + 2 + 3 + 4 + 1 + 2 + 3 + 4 + 1 + 2 + 3 + 4  +

G|-----------------------------------------------------------------|
D|-----------------------------------------------------------------|
A|-----------------2-2-2-2-2-2-2-2-----------------2-2-2-2-2-2-2-2-|
D|-0-0-0-0-3-3-3-3-----------------0-0-0-0-3-3-3-3-----------------|
   1 + 2 + 3 + 4 + 1 + 2 + 3 + 4 + 1 + 2 + 3 + 4 + 1 + 2 + 3 + 4 +

G|-----------------------------------------------------------------|
D|-----------------------------------------------------------------|
A|-1-1-1-1-1-1-1-1-3-3-3-3-3-3-3-3-5-5-5-5-5-5-5-5-----------------|
D|-------------------------------------------------0-0-0-0-0-0-12\-|
   1 + 2 + 3 + 4 + 1 + 2 + 3 + 4 + 1 + 2 + 3 + 4 + 1 + 2 + 3 + 4 +

4:38
G|------------------------------------------------------------------|
D|o-----------------------------------------------------------------|
A|o---------6-------5---------------5-------6-------5---------------|
D|--0-0-0-0---0-0-0---0-0-0-6-6-6-6---0-0-0---0-0-0---0-0-0-6-6-6-6-|
    1 + 2 + 3 + 4 + 1 + 2 + 3 + 4 + 1 + 2 + 3 + 4 + 1 + 2 + 3 + 4 +

G|------------------------------------------------------------------|
D|-----6-8-----7-8-----8-10----6-8---------------------------------o|
A|-5-5-------------8-8-----6-6-----5-5-7-8-------------------------o|x3
D|---------8-8-----------------------------6-6-6-6-7-7-7-7-7-7-3-1--|
   1 + 2 + 3 + 4 + 1 + 2 + 3 + 4 + 1 + 2 + 3 + 4 + 1 + 2 + 3 + 4 +
Tabbed by Dave Vucko

===============================================================================

Monstrance Clock

0:17
G|---------------------------5-7-\---------------------------5-7-\-|
D|-----------------------5-7-----------------------------5-7-------|
A|-------3-5-----------------------------3-5-----------------------|
D|-0---------------0---------------0---------------0---------------|
   1 + 2 + 3 + 4 + 1 + 2 + 3 + 4 + 1 + 2 + 3 + 4 + 1 + 2 + 3 + 4 +

G|-----------------------------------------------------------5-7-\-|
D|---------------------3-------5-----------------------------------|
A|-------3-5---5---1-----1-3---------------------------------------|
D|-0-------------------------------5-----3-5-------5-----3-5-------|
   1 + 2 + 3 + 4 + 1 + 2 + 3 + 4 + 1 + 2 + 3 + 4 + 1 + 2 + 3 + 4 +

0:35
G|-----------------------------------------------------------------|
D|-----------------------------------------------------------------|
A|-----------------4-----4-4h5-4-------------------4-----4-4h5-4---|
D|-5-----3-5---5-\-----------------5-----3-5---5-\-----------------|
   1 + 2 + 3 + 4 + 1 + 2 + 3 + 4 + 1 + 2 + 3 + 4 + 1 + 2 + 3 + 4 +

G|---------------5-------5-----5-7-------7-------7-----7-----------|
D|-----3-5-----7---8---7-----------5---8-------8---5-----8-5-------|
A|---------6---------------8---------------8-----------------------|
D|-5-----------------------------------------------------------5-\-|
   1 + 2 + 3 + 4 + 1 + 2 + 3 + 4 + 1 + 2 + 3 + 4 + 1 + 2 + 3 + 4 +

G|-----------------------------------------------------------------|
D|-----------------------------------------------------------------|
A|-----------------4-----4-4h5-4-------------------4-----4-4h5-4---|
D|-5-----3-5---5-\-----------------5-----3-5---5-\-----------------|
   1 + 2 + 3 + 4 + 1 + 2 + 3 + 4 + 1 + 2 + 3 + 4 + 1 + 2 + 3 + 4 +

G|---------------5-------5-----5-7-------7-------7-----7-----------|
D|-----3-5-----7---8---7-----------5---8-------8---5-----8-5-------|
A|---------6---------------8---------------8-----------------------|
D|-5---------------------------------------------------------------|
   1 + 2 + 3 + 4 + 1 + 2 + 3 + 4 + 1 + 2 + 3 + 4 + 1 + 2 + 3 + 4 +

1:11
G|-------------------------------------------------------------------|
D|o-----------------------------------------------------------------o|
A|o-----------------3-3-3-3-1-1---------------------1-1-1-1---------o|x4
D|--1-1-1-1-5-5-5-5-------------3-3-1-1-1-1-5-5-5-5---------3-3-3-3--|
    1 + 2 + 3 + 4 + 1 + 2 + 3 + 4 + 1 + 2 + 3 + 4 + 1 + 2 + 3 + 4 +

1:48
G|---------------------------5-7-\---------------------------5-7-\-|
D|-----------------------5-7-----------------------------5-7-------|
A|-------3-5-----------------------------3-5-----------------------|
D|-0-0-------------0-0-------------0-0-------------0-0-------------|
   1 + 2 + 3 + 4 + 1 + 2 + 3 + 4 + 1 + 2 + 3 + 4 + 1 + 2 + 3 + 4 +

G|-----------------------------------------------------------5-7-\-|
D|---------------------3-------5---5-5---3-5-------------3-5-------|
A|-------3-5---5---1-----1-3---------------------------------------|
D|-0-0---------------------------------------------5-5-------------|
   1 + 2 + 3 + 4 + 1 + 2 + 3 + 4 + 1 + 2 + 3 + 4 + 1 + 2 + 3 + 4 +

2:06
G|-----------------------------------------------------------------|
D|-----------------------------------------------------------------|
A|-----------------4-----4-4h5-4-------------------4-----4-4h5-4---|
D|-5-----3-5---5-\-----------------5-----3-5---5-\-----------------|
   1 + 2 + 3 + 4 + 1 + 2 + 3 + 4 + 1 + 2 + 3 + 4 + 1 + 2 + 3 + 4 +

G|-----------------------------------------------------------------|
D|-----------------------------3-----------------------------------|
A|-------5-6-----8-----6-8---------------5-----3-5-----5---6---5---|
D|-5---8-----------8-------3-------5---8---3-------5-----5---------|
   1 + 2 + 3 + 4 + 1 + 2 + 3 + 4 + 1 + 2 + 3 + 4 + 1 + 2 + 3 + 4 +

2:25
G|-----------------------------------------------------------------|
D|-----------------------------------------------------------------|
A|-----------------4-----4-4h5-4-------------------4-----4-4h5-4---|
D|-5-----3-5---5-\-----------------5-----3-5---5-\-----------------|
   1 + 2 + 3 + 4 + 1 + 2 + 3 + 4 + 1 + 2 + 3 + 4 + 1 + 2 + 3 + 4 +

G|---------------------------------------7-------7-----------------|
D|-----------------------------3-3-5---8-------8---5---5-----------|
A|-------5-6---6-8-------8-----------------8-----------------------|
D|-5---8-----------8---8---3---------------------------------------|
   1 + 2 + 3 + 4 + 1 + 2 + 3 + 4 + 1 + 2 + 3 + 4 + 1 + 2 + 3 + 4 +

Rest

3:01
G|------------------5-5-5-5------------------------------------------|
D|o---------5-5-5-5---------8-8-------------5-5-5-5-8-8-8-8---------o|
A|o-6-6-6-6---------------------8-8-6-6-6-6-----------------8-8-8-8-o|
D|-------------------------------------------------------------------|
    1 + 2 + 3 + 4 + 1 + 2 + 3 + 4 + 1 + 2 + 3 + 4 + 1 + 2 + 3 + 4 +

3:19
G|-------------------------------------------------------------------|
D|o-----------------------------------------------------------------o|
A|o-----------------3-3-3-3-1-1---------------------1-1-1-1---------o|x7
D|--1-1-1-1-5-5-5-5-------------3-3-1-1-1-1-5-5-5-5---------3-3-3-3--|
    1 + 2 + 3 + 4 + 1 + 2 + 3 + 4 + 1 + 2 + 3 + 4 + 1 + 2 + 3 + 4 +

G|-----------------------------------------------------------------|
D|-----------------------------------------------------------------|
A|-----------------3-3-3-3-1-1---------------------1-1-1-1---------|
D|-1-1-1-1-5-5-5-5-------------3-3-1-1-1-1-5-5-5-5---------3-3-----|
   1 + 2 + 3 + 4 + 1 + 2 + 3 + 4 + 1 + 2 + 3 + 4 + 1 + 2 + 3 + 4 +

4:32 very faint
G|------------------5------------------------------------------------|
D|o---------5-------------------------------5-------8---------------o|
A|o-6-----------------------8-------6-----------------------8-------o|
D|-------------------------------------------------------------------| 
    1 + 2 + 3 + 4 + 1 + 2 + 3 + 4 + 1 + 2 + 3 + 4 + 1 + 2 + 3 + 4 +

4:51 repeat till end
G|-------------------------------------------------------------------|
D|o-----------------------------------------------------------------o|
A|o-----------------3-------------------------------1---------------o|
D|--1-------5---------------3-------1-------5---------------3--------| 
    1 + 2 + 3 + 4 + 1 + 2 + 3 + 4 + 1 + 2 + 3 + 4 + 1 + 2 + 3 + 4 +
Tabbed by Dave Vucko

===============================================================================

End of Regular Album

===============================================================================

La Mantra Mori

0:43
G|-------------------------------------------------------------------|
D|o-----------------------------------------------------------------o|
A|o-----5-------5-------5-6---5-6-------5-------5-------5-6---5-6---o|x4
D|--5-8---3---8---8-5-8-----------8-5-8---3---8---8-5-8-----------8--|
    1 + 2 + 3 + 4 + 1 + 2 + 3 + 4 + 1 + 2 + 3 + 4 + 1 + 2 + 3 + 4 +

1:17
G|-----------------------------------------------------------------|
D|-----------------------------------------------------------------|
A|-----5-------5-------5-6---5-6-------5-------5---------5-6-6-6---|
D|-5-8---3---8---8-5-8-----------8-5-8---3---8---8-5-7-8---------8-|
   1 + 2 + 3 + 4 + 1 + 2 + 3 + 4 + 1 + 2 + 3 + 4 + 1 + 2 + 3 + 4 +

1:27
G|-----------------------------------------------------------------|
D|-----------------------------------------------------------------|
A|-----5-------5-------5-6---5-6-------5-------5-------5-6---5-6---|
D|-5-8---3---8---8-5-8-----------8-5-8---3---8---8-5-8-----------8-|
   1 + 2 + 3 + 4 + 1 + 2 + 3 + 4 + 1 + 2 + 3 + 4 + 1 + 2 + 3 + 4 +

G|---------------------------------------------5-7-8---------------|
D|-----10------8---6---6---6-8-6---5-----8-------------------------|
A|-3---------8-------6---6-----------------------------------------|
D|---5---8-----------------------------------------------------8-\-|
   1 + 2 + 3 + 4 + 1 + 2 + 3 + 4 + 1 + 2 + 3 + 4 + 1 + 2 + 3 + 4 +

G|-----------------------------------------------------------------|
D|-----------------------------------------------------------------|
A|-----5-------5-------5-6---5-6-------5-------5-------5-6---5-6---|
D|-5-8---3---8---8-5-8-----------8-5-8---3---8---8-5-8-----------8-|
   1 + 2 + 3 + 4 + 1 + 2 + 3 + 4 + 1 + 2 + 3 + 4 + 1 + 2 + 3 + 4 +

G|---------------------------------------7-------7-8---------------|
D|-----10------8---6---6---6-8-6---5---------5-7-------------------|
A|-3---------8-------6---6-----------------------------------------|
D|---5---8---------------------------------------------------------|
   1 + 2 + 3 + 4 + 1 + 2 + 3 + 4 + 1 + 2 + 3 + 4 + 1 + 2 + 3 + 4 +

G|-----------------------------------------------------------------|
D|-----------------------------------------------------------------|
A|-----------------------------------------------------------------|
D|-5-5-5-3---3-3-3-5-5-5-5---5-5-5-5-5-5-3---3-3-3-5-5-5-5-5-5-5---|
   1 + 2 + 3 + 4 + 1 + 2 + 3 + 4 + 1 + 2 + 3 + 4 + 1 + 2 + 3 + 4 +

2:10
G|-----------------------------------------------------------------|
D|-----------------------------------------------------------------|
A|-----5-------5-------5-6---5-6-------5-------5-------5-6---5-6---|
D|-5-8---3---8---8-5-8-----------8-5-8---3---8---8-5-8-----------8-|
   1 + 2 + 3 + 4 + 1 + 2 + 3 + 4 + 1 + 2 + 3 + 4 + 1 + 2 + 3 + 4 +

G|---------------------------------------------5-7-8---------------|
D|-----10------8---6---6---6-8-6---5-----8-------------------------|
A|-3---------8-------6---6-----------------------------------------|
D|---5---8-----------------------------------------------------8-\-|
   1 + 2 + 3 + 4 + 1 + 2 + 3 + 4 + 1 + 2 + 3 + 4 + 1 + 2 + 3 + 4 +

G|-----------------------------------------------------------------|
D|-----------------------------------------------------------------|
A|-----5-------5-------5-6---5-6-------5-------5-------5-6---5-6---|
D|-5-8---3---8---8-5-8-----------8-5-8---3---8---8-5-8-----------8-|
   1 + 2 + 3 + 4 + 1 + 2 + 3 + 4 + 1 + 2 + 3 + 4 + 1 + 2 + 3 + 4 +

G|---------------------------------------7-------7-8-----8---------|
D|-----10------8---6---6---6-8-6---5---------5-7-------------------|
A|-3---------8-------6---6-----------------------------------------|
D|---5---8---------------------------------------------------------|
   1 + 2 + 3 + 4 + 1 + 2 + 3 + 4 + 1 + 2 + 3 + 4 + 1 + 2 + 3 + 4 +

G|-----------------------------------------------------------------|
D|-----5-------3-------5-------5-------5-------3---5-----------5---|
A|---5-------3---3---5---5---5---5---5-------3---3---5---5---5---5-|
D|-5-----3---------5-------5-------5-----3-------------5---5-------|
   1 + 2 + 3 + 4 + 1 + 2 + 3 + 4 + 1 + 2 + 3 + 4 + 1 + 2 + 3 + 4 +

2:53
G|-----------------------------------------------------------------|
D|-----------------------------------------------------------------|
A|-----5-------5-------5-6---5-6-------5-------5-------5-6---5-6---|
D|-5-8---3---8---8-5-8-----------8-5-8---3---8---8-5-8-----------8-|
   1 + 2 + 3 + 4 + 1 + 2 + 3 + 4 + 1 + 2 + 3 + 4 + 1 + 2 + 3 + 4 +

G|---------------------------------------7-------7-8---------------|
D|-----10------8---6---6---6-8-6---5---------5-7-------------------|
A|-3---------8-------6---6-----------------------------------------|
D|---5---8-----------------------------------------------------8-\-|
   1 + 2 + 3 + 4 + 1 + 2 + 3 + 4 + 1 + 2 + 3 + 4 + 1 + 2 + 3 + 4 +

G|-----------------------------------------------------------------|
D|-----------------------------------------------------------------|
A|-----5-------5-------5-6---5-6-------5-------5-------5-6---5-6---|
D|-5-8---3---8---8-5-8-----------8-5-8---3---8---8-5-8-----------8-|
   1 + 2 + 3 + 4 + 1 + 2 + 3 + 4 + 1 + 2 + 3 + 4 + 1 + 2 + 3 + 4 +

G|---------------------------------------7-------7-8---------------|
D|-----10------8---6---6---6-8-6---5---------5-7-------------------|
A|-3---------8-------6---6-----------------------------------------|
D|---5---8---------------------------------------------------------|
   1 + 2 + 3 + 4 + 1 + 2 + 3 + 4 + 1 + 2 + 3 + 4 + 1 + 2 + 3 + 4 +

G|-----------------------------------------------------------------|
D|-----5-------3-------5-------5-------5-------3---5-----------5---|
A|---5-------3---3---5---5---5---5---5-------3---3---5---5---5---5-|
D|-5-----3---------5-------5-------5-----3-------------5---5-------|
   1 + 2 + 3 + 4 + 1 + 2 + 3 + 4 + 1 + 2 + 3 + 4 + 1 + 2 + 3 + 4 +


3:37
G|-----------------------------------------------------------------|
D|-----------------------------------------------------------------|
A|-----5-------5-------5-6---5-6-------5-------5-------5-6---5-6---|
D|-5-8---3---8---8-5-8-----------8-5-8---3---8---8-5-8-----------8-|
   1 + 2 + 3 + 4 + 1 + 2 + 3 + 4 + 1 + 2 + 3 + 4 + 1 + 2 + 3 + 4 +

G|---------------------------------------------5-7-8---------------|
D|-----10------8---6---6---6-8-6---5-----8-------------------------|
A|-3---------8-------6---6-----------------------------------------|
D|---5---8-----------------------------------------------------8-\-|
   1 + 2 + 3 + 4 + 1 + 2 + 3 + 4 + 1 + 2 + 3 + 4 + 1 + 2 + 3 + 4 +

G|-----------------------------------------------------------------|
D|-----------------------------------------------------------------|
A|-----5-------5-------5-6---5-6-------5-------5-------5-6---5-6---|
D|-5-8---3---8---8-5-8-----------8-5-8---3---8---8-5-8-----------8-|
   1 + 2 + 3 + 4 + 1 + 2 + 3 + 4 + 1 + 2 + 3 + 4 + 1 + 2 + 3 + 4 +

G|---------------------------------------------5-7-8---------------|
D|-----10------8---6---6---6-8-6---5-----8-------------------------|
A|-3---------8-------6---6-----------------------------------------|
D|---5---8-----------------------------------------------------8-\-|
   1 + 2 + 3 + 4 + 1 + 2 + 3 + 4 + 1 + 2 + 3 + 4 + 1 + 2 + 3 + 4 +

4:13
G|-----------------------------------------------------------------|
D|-----------------------------------------------------------------|
A|-----5-------5-------5-6---5-6-------5-------5-------5-6---5-6---|
D|-5-8---3---8---8-5-8-----------8-5-8---3---8---8-5-8-----------8-|
   1 + 2 + 3 + 4 + 1 + 2 + 3 + 4 + 1 + 2 + 3 + 4 + 1 + 2 + 3 + 4 +

G|---------------------------------------7-------7-8---------------|
D|-----10------8---6---6---6-8-6---5---------5-7-------------------|
A|-3---------8-------6---6-----------------------------------------|
D|---5---8-----------------------------------------------------8-\-|
   1 + 2 + 3 + 4 + 1 + 2 + 3 + 4 + 1 + 2 + 3 + 4 + 1 + 2 + 3 + 4 +

G|-----------------------------------------------------------------|
D|-----------------------------------------------------------------|
A|-----5-------5-------5-6---5-6-------5-------5-------5-6---5-6---|
D|-5-8---3---8---8-5-8-----------8-5-8---3---8---8-5-8-----------8-|
   1 + 2 + 3 + 4 + 1 + 2 + 3 + 4 + 1 + 2 + 3 + 4 + 1 + 2 + 3 + 4 +

G|---------------------------------------7-------7-8---------------|
D|-----10------8---6---6---6-8-6---5---------5-7-------------------|
A|-3---------8-------6---6-----------------------------------------|
D|---5---8---------------------------------------------------------|
   1 + 2 + 3 + 4 + 1 + 2 + 3 + 4 + 1 + 2 + 3 + 4 + 1 + 2 + 3 + 4 +
Tabbed by Dave Vucko 

===============================================================================

I'm a Marionette

G|---------------------------------------------------|
D|o-------------------------------------------------o|
A|o-------------------------------------------------o|
D|--9---9-9-6-8-9---9-9-6-8-9---9-9-6-8-9---9-9-6-8--|
    1 + 2 + 3 + 1 + 2 + 3 + 1 + 2 + 3 + 1 + 2 + 3 + 

G|------------------------------------------------------------------------|
D|------------------------------------------------------------------------|
A|-------------------------------------2----------------------------------|
D|-5-----------------2----------------------------------------------------|
   1 + 2 + 3 + 1 + 2 + 3 + 1 + 2 + 3 + 1 + 2 + 3 + 1 + 2 + 3 + 1 + 2 + 3 + 

0:16
G|---------------------------------------------------|
D|o-------------------------------------------------o|
A|o-------------------------------------------------o|
D|--9---9-9-6-8-9---9-9-6-8-9---9-9-6-8-9---9-9-6-8--|
    1 + 2 + 3 + 1 + 2 + 3 + 1 + 2 + 3 + 1 + 2 + 3 + 

G|------------------------------------------------------------------------|
D|-------------------2----------------------------------------------------|
A|-------------------------------------2----------------------------------|
D|-5----------------------------------------------------------------------|
   1 + 2 + 3 + 1 + 2 + 3 + 1 + 2 + 3 + 1 + 2 + 3 + 1 + 2 + 3 + 1 + 2 + 3 + 

G|---------------------------------------------------|
D|o-------------------------------------------------o|
A|o-------------------------------------------------o|
D|--9---9-9-6-8-9---9-9-6-8-9---9-9-6-8-9---9-9-6-8--|
    1 + 2 + 3 + 1 + 2 + 3 + 1 + 2 + 3 + 1 + 2 + 3 + 

G|------------------------------------------------------------------------|
D|-5-----------------2----------------------------------------------------|
A|-------------------------------------2----------------------------------|
D|------------------------------------------------------------------------|
   1 + 2 + 3 + 1 + 2 + 3 + 1 + 2 + 3 + 1 + 2 + 3 + 1 + 2 + 3 + 1 + 2 + 3 + 

0:43 Slower
G|-------------------------------------------------|
D|-------------------------------------------------|
A|-------------4-----------------------------------|
D|-5-----------------------5---8---5---------------|
   1 + 2 + 3 + 1 + 2 + 3 + 1 + 2 + 1 + 2 + 3 + 4 + 

G|---------------------------------------------------------|
D|---------------------------------------------------------|
A|-------------4-------------------------------4-----------|
D|-5-----------------------5---8---5-----------------------|
   1 + 2 + 3 + 1 + 2 + 3 + 1 + 2 + 1 + 2 + 3 + 1 + 2 + 3 + 

G|-------------------------------------------------|
D|-------------------------------------------------|
A|-------------2-----------------------------------|
D|-3-----------------------3---6---3---------------|
   1 + 2 + 3 + 1 + 2 + 3 + 1 + 2 + 1 + 2 + 3 + 4 + 

G|-----------------------------------------------------------------|
D|-----------------------------------------------------------------|
A|-------------2---------------------------------------------------|
D|-3-----------------------3---6---3-----------5---------------9-\-|
   1 + 2 + 3 + 1 + 2 + 3 + 1 + 2 + 1 + 2 + 3 + 1 + 2 + 3 + 1 + 2 + 

1:09 Reg Tempo
G|-------------------------------------------------|
D|-------------------------------------------------|
A|-------------------------------------------------|
D|-9---9-9-6-8-----9-9-6-8-----9-9-6-8-----9-9-6-8-|
   1 + 2 + 3 + 1 + 2 + 3 + 1 + 2 + 3 + 1 + 2 + 3 + 

G|-------------------------------------------------|
D|-------------------------------------------------|
A|---------------------------------------------8-9-|
D|-----9-9-6-8-----9-9-6-8-----9-9-6-8-9-9-9-9-----|
   1 + 2 + 3 + 1 + 2 + 3 + 1 + 2 + 3 + 1 + 2 + 3 + 

1:17
G|-|---------------------------------------------------|
D|-|o-------------------------------------------------o|
A|-|o-------------------------------------------------o|
D|o|--9---9-9-6-8-9---9-9-6-8-9---9-9-6-8-9---9-9-6-8--|
    1 + 2 + 3 + 1 + 2 + 3 + 1 + 2 + 3 + 1 + 2 + 3 + 

G|------------------------------------------------------------------------o|
D|-------------------------------------------------------------------------|
A|-------------------------------------2-----------------------------------|
D|-5-----------------2----------------------------------------------------o|
   1 + 2 + 3 + 1 + 2 + 3 + 1 + 2 + 3 + 1 + 2 + 3 + 1 + 2 + 3 + 1 + 2 + 3 + 

1:44 Slower
G|-------------------------------------------------|
D|-------------------------------------------------|
A|-------------4-----------------------------------|
D|-5-----------------------5---8---5---------------|
   1 + 2 + 3 + 1 + 2 + 3 + 1 + 2 + 1 + 2 + 3 + 4 + 

G|---------------------------------------------------------|
D|---------------------------------------------------------|
A|-------------4-------------------------------4-----------|
D|-5-----------------------5---8---5-----------------------|
   1 + 2 + 3 + 1 + 2 + 3 + 1 + 2 + 1 + 2 + 3 + 1 + 2 + 3 + 

G|-------------------------------------------------|
D|-------------------------------------------------|
A|-------------2-----------------------------------|
D|-3-----------------------3---6---3---------------|
   1 + 2 + 3 + 1 + 2 + 3 + 1 + 2 + 1 + 2 + 3 + 4 + 

G|---------------------------------------------------------|
D|---------------------------------------------------------|
A|-------------2-------------------------------------------|
D|-3-----------------------3---6---3-----------5-----------|
   1 + 2 + 3 + 1 + 2 + 3 + 1 + 2 + 1 + 2 + 3 + 1 + 2 + 3 + 

2:08
G|-------------------------------------------------|
D|-----------------------------3---2---------------|
A|-------------3---1---1---------------------------|
D|-3-----------------------3-----------------------|
   1 + 2 + 3 + 1 + 2 + 3 + 1 + 2 + 3 + 1 + 2 + 3 + 

G|-------------------------------------------------|
D|-----------------------------3-------5-5-5-5-5-5-|
A|-------------3---1---1-------------3-------------|
D|-3-----------------------3-------3---------------|
   1 + 2 + 3 + 1 + 2 + 3 + 1 + 2 + 3 + 1 + 2 + 3 + 

G|-------------------------------------------------|
D|-----------------------------3-------------------|
A|-------------3---1---1---------------------------|
D|-3-----------------------3-------2---------------|
   1 + 2 + 3 + 1 + 2 + 3 + 1 + 2 + 3 + 1 + 2 + 3 + 

G|-------------------------------------------------|
D|---------------------------------3---5-5-5-5-5-5-|
A|-------------3---1---1-------3-------------------|
D|-3-----------------------3-----------------------|
   1 + 2 + 3 + 1 + 2 + 3 + 1 + 2 + 3 + 1 + 2 + 3 + 

2:32
G|---------------------3---------------------------|
D|---------3-3-----------------3-------------------|
A|-------------3---1-------------------------------|
D|-3-3-3-3-----------------3-------2---------------|
   1 + 2 + 3 + 1 + 2 + 3 + 1 + 2 + 3 + 1 + 2 + 3 + 

G|---------------------3---------------------------|
D|-----3-3-3-3-----------------3-------5-5-5-5-5-5-|
A|-------------3---1---------------3---------------|
D|-3-3---------------------3-----------------------|
   1 + 2 + 3 + 1 + 2 + 3 + 1 + 2 + 3 + 1 + 2 + 3 + 

2:43
G|---------------------3---------------------------|
D|---------3-3-----------------3-------------------|
A|-------------3---1-------------------------------|
D|-3-3-3-3-----------------3-------2---------------|
   1 + 2 + 3 + 1 + 2 + 3 + 1 + 2 + 3 + 1 + 2 + 3 + 


G|---------------------3-------------------------------|
D|---------3-3---------------------3---5---------------|
A|-------------3---1-----------3-----------------------|
D|-3-3-3-3-----------------3-----------------------3---|
   1 + 2 + 3 + 1 + 2 + 3 + 1 + 2 + 3 + 1 + 2 + 3 + 1 +

Rest

3:01 reg tempo
G|-------------|-------------------------------------------------|
D|-------------|-------------------------------------------------|
A|-4-----3-----|-------------------------------------------------|
D|-------------|-9---9-9-6-8-9---9-9-6-8-9---9-9-6-8-9---9-9-6-8-|
   1 + 2 + 3 +   1 + 2 + 3 + 1 + 2 + 3 + 1 + 2 + 3 + 1 + 2 + 3 +

G|-------------------------------------------------|
D|-------------------------------------4-----------|
A|-------------------------------------------4-----|
D|-9---9-9-6-8-9---9-9-6-8-9---9-9-6-8-------------|
   1 + 2 + 3 + 1 + 2 + 3 + 1 + 2 + 3 + 1 + 2 + 3 +

3:11
G|--------------------------------------------------|
D|o-------------------------------------------------|
A|o-------------------------------------------------|
D|--9---9-9-9-9-9---9-9-9-9-9---9-9-9-9-9---9-9-9-9-|
    1 + 2 + 3 + 1 + 2 + 3 + 1 + 2 + 3 + 1 + 2 + 3 + 

G|-------------------------------------------------|
D|-------------------------------------------------|
A|-------------------------------------------------|
D|-7---7-7-7-7-7---7-7-7-7-7---7-7-7-7-7---7-7-7-7-|
   1 + 2 + 3 + 1 + 2 + 3 + 1 + 2 + 3 + 1 + 2 + 3 + 

G|--------------------------------------------------|
D|------------------------------------/14------12--o|
A|-------------------------2-----------------------o|
D|-5-----------2------------------------------------|
   1 + 2 + 3 + 1 + 2 + 3 + 1 + 2 + 3 + 1 + 2 + 3 + 

3:37
G|-------------------------------------------------|
D|-------------------------------------------------|
A|-------------4-----------------------------------|
D|-5-----------------------5---8---5---------------|
   1 + 2 + 3 + 1 + 2 + 3 + 1 + 2 + 1 + 2 + 3 + 4 + 

G|---------------------------------------------------------|
D|---------------------------------------------------------|
A|-------------4-------------------------------4-----------|
D|-5-----------------------5---8---5-------------------11\-|
   1 + 2 + 3 + 1 + 2 + 3 + 1 + 2 + 1 + 2 + 3 + 1 + 2 + 3 + 

G|-------------------------------------------------|
D|-------------------------------------------------|
A|-------------2-----------------------------------|
D|-3-----------------------3---6---3---------------|
   1 + 2 + 3 + 1 + 2 + 3 + 1 + 2 + 1 + 2 + 3 + 4 + 

G|---------------------------------------------------------|
D|---------------------------------------------------------|
A|-------------2-------------------------------------------|
D|-3-----------------------3---6---3-----------5-----------|
   1 + 2 + 3 + 1 + 2 + 3 + 1 + 2 + 1 + 2 + 3 + 1 + 2 + 3 + 

4:02 repeat till end
G|--------------------------------------------------|
D|o-----3-----------4-----------------------3-------|
A|o-------------2-------2---------------3-------3---|
D|--3-------3---------------3---6---3---------------|
    1 + 2 + 3 + 1 + 2 + 3 + 1 + 2 + 3 + 1 + 2 + 3 + 

G|----------------------------------------------------------|
D|-----3-----------4-----------------------3-----------5---o|
A|-------------2-------2---------------3-----------5-------o|
D|-3-------3---------------3---6---3-----------5------------|
   1 + 2 + 3 + 1 + 2 + 3 + 1 + 2 + 1 + 2 + 3 + 1 + 2 + 3 +
Tabbed by Dave Vucko 
===============================================================================

Japanese Bonus Track

Waiting For The Night

G|-----------------------------------------------------------------|
D|-----------------------------------------------------------------|
A|-----------------------------------------------------------------|
D|-5-------------------------------8-------------------------------|
   1 + 2 + 3 + 4 + 1 + 2 + 3 + 4 + 1 + 2 + 3 + 4 + 1 + 2 + 3 + 4 +

G|-----------------------------------------------------------------|
D|-------------------------------------------------6---------------|
A|-----------------------------------------------6---6-------------|
D|-4---------------8---------------6-----6-6-6-6-------6-6-3-------|
   1 + 2 + 3 + 4 + 1 + 2 + 3 + 4 + 1 + 2 + 3 + 4 + 1 + 2 + 3 + 4 +

G|-----------------------------------------------------------------|
D|-----------------------------------------------------------------|
A|-----------------------------------------------------------------|
D|-5---------------5---------------8---------------8---------------|
   1 + 2 + 3 + 4 + 1 + 2 + 3 + 4 + 1 + 2 + 3 + 4 + 1 + 2 + 3 + 4 +

G|-----------------------------------------------------------------|
D|-----------------------------------------------------------------|
A|-----------------------------------------------------------------|
D|-4---------------8---------------6-------------------------------|
   1 + 2 + 3 + 4 + 1 + 2 + 3 + 4 + 1 + 2 + 3 + 4 + 1 + 2 + 3 + 4 +

0:46
G|-----------------------------------------------------------------|
D|-------------6-------------------------------4-------------------|
A|-4-----4-4-------4-----4-4---------------------------------------|
D|---------------------------------4-----4-4-------4-----4-4-------|
   1 + 2 + 3 + 4 + 1 + 2 + 3 + 4 + 1 + 2 + 3 + 4 + 1 + 2 + 3 + 4 +

G|-----------------------------------------------------------------|
D|-----------------------------------------------------------------|
A|-------------8---------------------------------------------------|
D|-8-----8-8-------8-----8-8-------3-------3-------6-------6-------|
   1 + 2 + 3 + 4 + 1 + 2 + 3 + 4 + 1 + 2 + 3 + 4 + 1 + 2 + 3 + 4 +

1:08
G|-----------------------------------------------------------------|
D|-------------6-------------------------4-4---4-------------------|
A|-4-----4-4-------4-----4-4---------------------------------------|
D|---------------------------------4---------------4-----4-4-------|
   1 + 2 + 3 + 4 + 1 + 2 + 3 + 4 + 1 + 2 + 3 + 4 + 1 + 2 + 3 + 4 +

G|-----------------------------------------------------------------|
D|-----------------------------------------------------------------|
A|-1-----1-1-------1-----1-1---------------------------------------|
D|-------------3-------------------3-------3-------6-------r-------|
   1 + 2 + 3 + 4 + 1 + 2 + 3 + 4 + 1 + 2 + 3 + 4 + 1 + 2 + 3 + 4 +

1:30
G|-----------------------------------------------------------------|
D|-----------------------------------------------------------------|
A|-------------------------------------------------------------8-\-|
D|-5---r-5-5---r---5---r-5-5---r---8---r-8-8---r---8---r-8-8-------|
   1 + 2 + 3 + 4 + 1 + 2 + 3 + 4 + 1 + 2 + 3 + 4 + 1 + 2 + 3 + 4 +

G|-----------------------------------------------------------------|
D|-----------------------------------------------------------------|
A|-----------------------------------------6-----------------------|
D|-4---------------8-------8-8-8---6-----6-----6---6-------3-------|
   1 + 2 + 3 + 4 + 1 + 2 + 3 + 4 + 1 + 2 + 3 + 4 + 1 + 2 + 3 + 4 +

1:52
G|-----------------------------------------------------------------|
D|-----------------------------------------------------------------|
A|-------------------------------------------------------------8-\-|
D|-5---r-5-5---r---5---r-5-5---r---8---r-8-8---r---8---r-8-8-------|
   1 + 2 + 3 + 4 + 1 + 2 + 3 + 4 + 1 + 2 + 3 + 4 + 1 + 2 + 3 + 4 +

G|-----------------------------------------------------------------|
D|-----------------------------------------6-----------------------|
A|---------------------------------------6---6-6-------------------|
D|-4---------------8-------8-8-8---6-------------6-6---------------|
   1 + 2 + 3 + 4 + 1 + 2 + 3 + 4 + 1 + 2 + 3 + 4 + 1 + 2 + 3 + 4 +

2:14
G|-----------------------------------------------------------------|
D|-----------------------------------------------------------------|
A|-4-----4-4---4---4-----4-4---4-----------------------------------|
D|---------------------------------4-----4-4---4---4-----4-4---4---|
   1 + 2 + 3 + 4 + 1 + 2 + 3 + 4 + 1 + 2 + 3 + 4 + 1 + 2 + 3 + 4 +

G|-----------------------------------------------------------------|
D|-----------------------------------------------------------------|
A|-1-----1-1---1---1-----1-1---1-----------------------------------|
D|---------------------------------3-------3-3-3-3-6-6-6-6-6-6-6-6-|
   1 + 2 + 3 + 4 + 1 + 2 + 3 + 4 + 1 + 2 + 3 + 4 + 1 + 2 + 3 + 4 +

G|-----------------------------------------------------------------|
D|-----------------------------------------------------------------|
A|-4-----4-4---4---4-----4-4---4-----------------------------------|
D|---------------------------------4-----4-4---4---4-----4-4---4---|
   1 + 2 + 3 + 4 + 1 + 2 + 3 + 4 + 1 + 2 + 3 + 4 + 1 + 2 + 3 + 4 +

G|-----------------------------------------------------------------|
D|-----------------------------------------3---------------6-------|
A|-1-----1-1---1---1-----1-1---1-----------------------------------|
D|---------------------------------3---3-3---3-3-3-6---6-6---6-6---|
   1 + 2 + 3 + 4 + 1 + 2 + 3 + 4 + 1 + 2 + 3 + 4 + 1 + 2 + 3 + 4 +

2:59
G|-----------------------------------------------------------------|
D|-----------------------------------------------------------------|
A|-----------------------------------------------------------------|
D|-1-1-1-1-1-1-1-1-1-1-1-1-1-1-1-1-3---3-3-3-3-3-3-8-8-8-8-8-8-8-8-|
   1 + 2 + 3 + 4 + 1 + 2 + 3 + 4 + 1 + 2 + 3 + 4 + 1 + 2 + 3 + 4 +

G|-----------------------------------------------------------------|
D|-----------------------------------------------------------------|
A|-----------------------------------------------------------------|
D|-1-1-1-1-1-1-1-1-1-1-1-1-1-1-1-1-3---3-3-3-3-3-3-3-------\-------|
   1 + 2 + 3 + 4 + 1 + 2 + 3 + 4 + 1 + 2 + 3 + 4 + 1 + 2 + 3 + 4 +

3:21
G|-----------------------------------------------------------------|
D|-------------5-------------------------------8---------------8-\-|
A|-----------------------------------------------------------------|
D|-5-----5-5-------5-----5-5-------8-----8-8-------8-----8-8-8-----|
   1 + 2 + 3 + 4 + 1 + 2 + 3 + 4 + 1 + 2 + 3 + 4 + 1 + 2 + 3 + 4 +

G|-----------------------------------------------------------------|
D|---------4---4-----------8---8-----------6-----------------------|
A|-----------------------------------------------------------------|
D|-4-----4---------8-----8---------6-----6-----6---6-------3-------|
   1 + 2 + 3 + 4 + 1 + 2 + 3 + 4 + 1 + 2 + 3 + 4 + 1 + 2 + 3 + 4 +

G|-----------------------------------------------------------------|
D|-------------5-------------------------------8-------------------|
A|-----------------------------------------------------------------|
D|-5-----5-5-------5-----5-5-------8-----8-8-------8-----8-8---8-\-|
   1 + 2 + 3 + 4 + 1 + 2 + 3 + 4 + 1 + 2 + 3 + 4 + 1 + 2 + 3 + 4 +

G|-----------------------------------------------------------------|
D|---------4---------------8---------------------------------------|
A|-----------------------------------------------------------------|
D|-4-----4-----4---8-----8-----8---6-------------------------------|
   1 + 2 + 3 + 4 + 1 + 2 + 3 + 4 + 1 + 2 + 3 + 4 + 1 + 2 + 3 + 4 +

4:05
G|-----------------------------------------------------------------|
D|-----------------------------------------------------------------|
A|-4-----4-4---4---4-----4-4---4-----------------------------------|
D|---------------------------------4-----4-4---4---4-----4-4---4---|
   1 + 2 + 3 + 4 + 1 + 2 + 3 + 4 + 1 + 2 + 3 + 4 + 1 + 2 + 3 + 4 +

G|-----------------------------------------------------------------|
D|---------------------------------------------------------6-------|
A|-1-----1-1---1---1-----1-1---1-------------------------6---6-----|
D|---------------------------------3-------3-3-3---6-6-6-------6-6-|
   1 + 2 + 3 + 4 + 1 + 2 + 3 + 4 + 1 + 2 + 3 + 4 + 1 + 2 + 3 + 4 +

G|-----------------------------------------------------------------|
D|-------------6---------------6---------------4---------------4---|
A|-4-----4-4-------4-----4-4---------------------------------------|
D|---------------------------------4-----4-4-------4-----4-4-------|
   1 + 2 + 3 + 4 + 1 + 2 + 3 + 4 + 1 + 2 + 3 + 4 + 1 + 2 + 3 + 4 +

G|-------------3---------------3-----------------------------------|
D|-------------------------------------------------------------6---|
A|-1-----1-1-------1-----1-1---------------------------------6---6-|
D|---------------------------------3-------3-3-3---6-6-6-6-6-------|
   1 + 2 + 3 + 4 + 1 + 2 + 3 + 4 + 1 + 2 + 3 + 4 + 1 + 2 + 3 + 4 +

4:49
G|-----------------------------------------------------------------|
D|-------------6-------6-----------------------4-------4-----------|
A|-4-----4-4-------4-----4-4---4-----------------------------------|
D|---------------------------------4-----4-4-------4-----4-4---4---|
   1 + 2 + 3 + 4 + 1 + 2 + 3 + 4 + 1 + 2 + 3 + 4 + 1 + 2 + 3 + 4 +

G|-----------------------------------------------------------------|
D|-------------3---------------3---------------------------6-------|
A|-1-----1-1-------1-----1-1-----------------------------6---6-----|
D|---------------------------------3-------3-3-3---6-6-6-------6-6-|
   1 + 2 + 3 + 4 + 1 + 2 + 3 + 4 + 1 + 2 + 3 + 4 + 1 + 2 + 3 + 4 +

G|-----------------------------------------------------------------|
D|-------------6---------------6---------------4---------------4---|
A|-4-----4-4-------4-----4-4---------------------------------------|
D|---------------------------------4-----4-4-------4-----4-4-------|
   1 + 2 + 3 + 4 + 1 + 2 + 3 + 4 + 1 + 2 + 3 + 4 + 1 + 2 + 3 + 4 +

G|-----------------------------------------------------------------|
D|-------------3---------------3---------------------------6-------|
A|-1-----1-1-------1-----1-1-----------------------------6---6-----|
D|---------------------------------3-------3-3-3-3-6-6-6-------6-6-|
   1 + 2 + 3 + 4 + 1 + 2 + 3 + 4 + 1 + 2 + 3 + 4 + 1 + 2 + 3 + 4 +
Tabbed by Dave Vucko
comments
print report bad tab
3 comments total.
+1 reply
jim1845 wrote on May 6 2013, 07:46 am

Very well done for this man! Infestissumam is one of my favourite albums, now I can sit down with my bass and enjoy it in a new way! Fantastic tab!

+1 reply
ESPVpr104 wrote on May 9 2013, 12:51 am

I want to thank you for tabbing this album in its entirety, I'm excited to learn it. I listened to most of it and I'd say it's spot on. There is one thing wrong with this though. Ghost plays in D-Standard. If you could somehow submit this in D-Standard [assuming you used a program to tab it?] that would be fantastic. I'm going to rate it 5-stars still, great job!

0 reply
Teh D Bot wrote on May 9 2013, 02:23 pm

I tabbed this all by ear, using TextEdit to write them down. I know ghost plays in D standard, but i see no point in tuning the bass like that as it is easy enough to play in drop D. Plus it would be a pain to change all these to a different tuning now. Anyways, thank you for leaving a comment and rating.

I want to post or [tab]
guest
You may want to rate the tab now too:
select rating
Please do not post tabs as comments. Select "correction" instead!