Oops, an error
Loading. Please wait.

Opus Eponymous Bass Tab

1,360 views 1 this week
1 commentread comment
1 2 3 4 5
please rate
Autoscroll
+/-
esc
set tempo
stop
Contributor
Difficulty
Tuning
intermediate
D A D G B E
Hey! There's an official Ultimate Guitar app which is ideal
for learning songs when you're away from computer. Get the app
WARNING: You are trying to view
                                    content from Ultimate-Guitar.com
                                    in an unauthorized application,
                                    which is prohibited.

                                    Please use an official Ultimate
                                    Guitar Tabs application for iPhone,
                                    iPad or Android to access legitimate
                                    chords, guitar, bass, and drum tabs
                                    from Ultimate-Guitar.com database.

                                    Type "ultimate guitar tabs" in Apple
                                    App Store's or Android Market's
                                    search to find the application.
Deus Cupla

No Bass

===============================================================================

Con Clavi Con Dio

G|-------------------------------------------------------------------------------------------------|
D|-------------------------------------------------------------------------------------------------|
A|-3h5---5-----3h5---5-----3h5---5-----3h5---5-3---3h5---5-----3h5---5-----3h5---5-----3h5-5-5-3---|
D|-----0-----0-----0-----0-----0-----0-----------6-----0-----0-----0-----0-----0-----0-----------6-|
   1 2 3 4 5 6 1 2 3 4 5 6 1 2 3 4 5 6 1 2 3 4 5 6 1 2 3 4 5 6 1 2 3 4 5 6 1 2 3 4 5 6 1 2 3 4 5 6

G|-------------------------------------------------------------------------------------------------|
D|-------------------------------------------------------------------------------------------------|
A|-3h5---5-----3h5---5-----3h5---5-----3h5---5-3---3h5---5-----3h5---5-----3h5---5-----3h5---5-3---|
D|-----0-----0-----0-----0-----0-----0-----------6-----0-----0-----0-----0-----0-----0-----------6-|
   1 2 3 4 5 6 1 2 3 4 5 6 1 2 3 4 5 6 1 2 3 4 5 6 1 2 3 4 5 6 1 2 3 4 5 6 1 2 3 4 5 6 1 2 3 4 5 6

0:14
G|-------------------------------------------------------------------------------------------------|
D|-------------------------------------------------------------------------------------------------|
A|-------------------------------------------------------------------------------------------------|
D|-1-0-0-1-0-0-1-0-0-1-0-0-1-0-0-1-0-0-6-8-8-8-7-6-1-0-0-1-0-0-1-0-0-1-0-0-1-0-0-1-0-0-6-8-8-8-7-6-|
   1 2 3 4 5 6 1 2 3 4 5 6 1 2 3 4 5 6 1 2 3 4 5 6 1 2 3 4 5 6 1 2 3 4 5 6 1 2 3 4 5 6 1 2 3 4 5 6

G|-------------------------------------------------------------------------------------------------|
D|-------------------------------------------------------------------------------------------------|
A|-------------------------------------------------------------------------------------------------|
D|-1-0-0-1-0-0-1-0-0-1-0-0-1-0-0-1-0-0-6-8-8-8-7-6-1-0-0-1-0-0-1-0-0-1-0-0-1-----------4-----------|
   1 2 3 4 5 6 1 2 3 4 5 6 1 2 3 4 5 6 1 2 3 4 5 6 1 2 3 4 5 6 1 2 3 4 5 6 1 2 3 4 5 6 1 2 3 4 5 6

0:28
G|---------------------------------------------------------------------------------------------------|
D|o-------------------------------------------------------------------------------------------------o|
A|o-------------------------------------------------------------------------------------------------o|
D|--1-0-0-1-0-0-1-0-0-1-0-0-1-0-0-1-0-0-6-8-8-8-7-6-1-0-0-1-0-0-1-0-0-1-0-0-1-0-0-1-0-0-6-8-8-8-7-6--|
    1 2 3 4 5 6 1 2 3 4 5 6 1 2 3 4 5 6 1 2 3 4 5 6 1 2 3 4 5 6 1 2 3 4 5 6 1 2 3 4 5 6 1 2 3 4 5 6

G|-------------------------------------------------|
D|-------------------------------------------------|
A|-------5-5-5-5-5-5-5-5-5-4-4-4-5-5-5-7-7-7-4-4-4-|
D|-0-----------------------------------------------|
   1 2 3 4 5 6 1 2 3 4 5 6 1 2 3 4 5 6 1 2 3 4 5 6 

0:47
G|-------------------------------------------------------------------------------------------------|
D|-------------------------------------------------------------------------------------------------|
A|-5---5-5-----5---5-5-----------------------------------------------------------------------------|
D|-------------------------4---4-4-----4---4-4-----3---3-3-----3---3-3-----2---2-2-----2---2-2-----|
   1 2 3 4 5 6 1 2 3 4 5 6 1 2 3 4 5 6 1 2 3 4 5 6 1 2 3 4 5 6 1 2 3 4 5 6 1 2 3 4 5 6 1 2 3 4 5 6

G|-------------------------------------------------------------------------------------------------|
D|-------------------------------------------------------------------------------------------------|
A|-0-----------------------5-----------------------8-----------3-----------10----10----10----10----|
D|-------------------------------------------------------------------------------------------------|
   1 2 3 4 5 6 1 2 3 4 5 6 1 2 3 4 5 6 1 2 3 4 5 6 1 2 3 4 5 6 1 2 3 4 5 6 1 2 3 4 5 6 1 2 3 4 5 6

1:02
G|-------------------------------------------------------------------------------------------------|
D|-------------------------------------------------------------------------------------------------|
A|-1-0-0-1-0-0-1-0-0-1-0-0-1-0-0-1-0-0-1-0-0-1-0-0-1-0-0-1-0-0-1-0-0-1-0-0-1-0-0-1-0-0-1-0-0-1-0-0-|
D|-------------------------------------------------------------------------------------------------|
   1 2 3 4 5 6 1 2 3 4 5 6 1 2 3 4 5 6 1 2 3 4 5 6 1 2 3 4 5 6 1 2 3 4 5 6 1 2 3 4 5 6 1 2 3 4 5 6

G|-------------------------------------------------|
D|-------------------------------------------------|
A|-1-0-0-1-0-0-1-0-0-1-0-0-1-0-0-1-0-0-1-0-0-1-----|
D|-------------------------------------------------|
   1 2 3 4 5 6 1 2 3 4 5 6 1 2 3 4 5 6 1 2 3 4 5 6 

1:13
G|-------------------------------------------------------------------------------------------------|
D|-------------------------------------------------------------------------------------------------|
A|-------------------------------------------------------------------------------------------------|
D|-1-0-0-1-0-0-1-0-0-1-0-0-1-0-0-1-0-0-6-8-8-8-7-6-1-0-0-1-0-0-1-0-0-1-0-0-1-0-0-1-0-0-6-8-8-8-7-6-|
   1 2 3 4 5 6 1 2 3 4 5 6 1 2 3 4 5 6 1 2 3 4 5 6 1 2 3 4 5 6 1 2 3 4 5 6 1 2 3 4 5 6 1 2 3 4 5 6

G|-------------------------------------------------------------------------------------------------|
D|-------------------------------------------------------------------------------------------------|
A|-------------------------------------------------------------------------------------------------|
D|-1-0-0-1-0-0-1-0-0-1-0-0-1-0-0-1-0-0-6-8-8-8-7-6-1-0-0-1-0-0-1-0-0-1-0-0-1-----------4-----------|
   1 2 3 4 5 6 1 2 3 4 5 6 1 2 3 4 5 6 1 2 3 4 5 6 1 2 3 4 5 6 1 2 3 4 5 6 1 2 3 4 5 6 1 2 3 4 5 6

1:28
G|---------------------------------------------------------------------------------------------------|
D|o-------------------------------------------------------------------------------------------------o|
A|o-------------------------------------------------------------------------------------------------o|
D|--1-0-0-1-0-0-1-0-0-1-0-0-1-0-0-1-0-0-6-8-8-8-7-6-1-0-0-1-0-0-1-0-0-1-0-0-1-0-0-1-0-0-6-8-8-8-7-6--|
    1 2 3 4 5 6 1 2 3 4 5 6 1 2 3 4 5 6 1 2 3 4 5 6 1 2 3 4 5 6 1 2 3 4 5 6 1 2 3 4 5 6 1 2 3 4 5 6

G|-------------------------------------------------|
D|-------------------------------------------------|
A|-------5-5-5-5-5-5-5-5-5-4-4-4-5-5-5-7-7-7-4-4-4-|
D|-0-----------------------------------------------|
   1 2 3 4 5 6 1 2 3 4 5 6 1 2 3 4 5 6 1 2 3 4 5 6 

1:47
G|-------------------------------------------------------------------------------------------------|
D|-------------------------------------------------------------------------------------------------|
A|-5---5-5-----5---5-5-----------------------------------------------------------------------------|
D|-------------------------4---4-4-----4---4-4-----3---3-3-----3---3-3-----2---2-2-----2---2-2-----|
   1 2 3 4 5 6 1 2 3 4 5 6 1 2 3 4 5 6 1 2 3 4 5 6 1 2 3 4 5 6 1 2 3 4 5 6 1 2 3 4 5 6 1 2 3 4 5 6

G|-------------------------------------------------------------------------------------------------|
D|-------------------------------------------------------------------------------------------------|
A|-0-----------------------5-----------------------8-----------3-----------10----10----10----\-----|
D|-------------------------------------------------------------------------------------------------|
   1 2 3 4 5 6 1 2 3 4 5 6 1 2 3 4 5 6 1 2 3 4 5 6 1 2 3 4 5 6 1 2 3 4 5 6 1 2 3 4 5 6 1 2 3 4 5 6

2:00
G|-------------------------------------------------------------------------------------------------|
D|-------------------------------------------------------------------------------------------------|
A|-------------------------------------------------------------------------------------------------|
D|-1-0-1-0-1-0-1-0-1-0-1-0-1-0-1-0-1-0-1-0-1-0-1-0-1-0-1-0-1-0-1-0-1-0-1-0-1-0-1-0-1-0-1-0-1-0-1-0-|
   1 2 3 4 5 6 1 2 3 4 5 6 1 2 3 4 5 6 1 2 3 4 5 6 1 2 3 4 5 6 1 2 3 4 5 6 1 2 3 4 5 6 1 2 3 4 5 6

G|-------------------------------------------------------------------------------------------------|
D|-------------------------------------------------------------------------------------------------|
A|-------------------------------------------------------------------------------------------------|
D|-3h4p3-4-----3-----4-----3h4p3-4-----3-----4-----3h4p3-4-----3-----4-----3h4p3-4-----3-----4-----|
   1 2 3 4 5 6 1 2 3 4 5 6 1 2 3 4 5 6 1 2 3 4 5 6 1 2 3 4 5 6 1 2 3 4 5 6 1 2 3 4 5 6 1 2 3 4 5 6

G|-------------------------------------------------------------------------------------------------|
D|-------------------------------------------------------------------------------------------------|
A|-------------------------------------------------------------------------------------------------|
D|-1-0-1-0-1-0-1-0-1-0-1-0-1-0-1-0-1-0-1-0-1-0-1-0-1-0-1-0-1-1-1-1-1-1-1-1-1-1-1-1-1-1-1-1-1-1-1-1-|
   1 2 3 4 5 6 1 2 3 4 5 6 1 2 3 4 5 6 1 2 3 4 5 6 1 2 3 4 5 6 1 2 3 4 5 6 1 2 3 4 5 6 1 2 3 4 5 6

2:23
G|-------------------------------------------------|
D|-------------------------------------------------|
A|-3h5---5-----3h5---5-----3h5---5-----3h5---5-3---|
D|-----0-----0-----0-----0-----0-----0-----------6-|
   1 2 3 4 5 6 1 2 3 4 5 6 1 2 3 4 5 6 1 2 3 4 5 6 


G|-------------------------------------------------------------------------------------------------|
D|-------------------------------------------------------------------------------------------------|
A|-6-5-5-6-5-5-6-5-5-6-5-5-6-5-5-6-5-5/8-8-8-8-5-3-6-5-5-6-5-5-6-5-5-6-5-5-6-5-5-6-5-5/8-8-8-8-5-3-|
D|-------------------------------------------------------------------------------------------------|
   1 2 3 4 5 6 1 2 3 4 5 6 1 2 3 4 5 6 1 2 3 4 5 6 1 2 3 4 5 6 1 2 3 4 5 6 1 2 3 4 5 6 1 2 3 4 5 6

G|-------------------------------------------------------------------------------------------------|
D|-------------------------------------------------------------------------------------------------|
A|-6-5-5-6-5-5-6-5-5-6-5-5-6-5-5-6-5-5/8-8-8-8-5-3-------------5-5-5-5-5-5-------0-0-0-3-3-3-------|
D|-------------------------------------------------0-----------------------6-6-6-------------6-6-6-|
   1 2 3 4 5 6 1 2 3 4 5 6 1 2 3 4 5 6 1 2 3 4 5 6 1 2 3 4 5 6 1 2 3 4 5 6 1 2 3 4 5 6 1 2 3 4 5 6

2:41
G|-------------------------------------------------------------------------------------------------|
D|-------------------------------------------------------------------------------------------------|
A|-5---5-5-----5---5-5-----------------------------------------------------------------------------|
D|-------------------------4---4-4-----4---4-4-----3---3-3-----3---3-3-----2---2-2-----2---2-2-----|
   1 2 3 4 5 6 1 2 3 4 5 6 1 2 3 4 5 6 1 2 3 4 5 6 1 2 3 4 5 6 1 2 3 4 5 6 1 2 3 4 5 6 1 2 3 4 5 6

G|-------------------------------------------------------------------------------------------------|
D|-------------------------------------------------------------------------------------------------|
A|-0-----------------------5-----------------------8-----------3-----------10----10----7-----7--\--|
D|-------------------------------------------------------------------------------------------------|
   1 2 3 4 5 6 1 2 3 4 5 6 1 2 3 4 5 6 1 2 3 4 5 6 1 2 3 4 5 6 1 2 3 4 5 6 1 2 3 4 5 6 1 2 3 4 5 6

2:56 repeat till end
G|---------------------------------------------------------------------------------------------------|
D|o-------------------------------------------------------------------------------------------------o|
A|o-1-0-0-1-0-0-1-0-0-1-0-0-1-0-0-1-0-0-1-0-0-1-0-0-1-0-0-1-0-0-1-0-0-1-0-0-1-0-0-1-0-0-1-0-0-1-0-0-o|
D|---------------------------------------------------------------------------------------------------|
    1 2 3 4 5 6 1 2 3 4 5 6 1 2 3 4 5 6 1 2 3 4 5 6 1 2 3 4 5 6 1 2 3 4 5 6 1 2 3 4 5 6 1 2 3 4 5 6
Tabbed by Dave Vucko

===============================================================================

Ritual

0:14
G|-13--------------12--------------13--------------12--------------|
D|-----------------------------------------------------------------|
A|-----------------------------------------------------------------|
D|-----------------------------------------------------------------|
   1 + 2 + 3 + 4 + 1 + 2 + 3 + 4 + 1 + 2 + 3 + 4 + 1 + 2 + 3 + 4 +

G|-10----------10h12-8-----------------------------------------------|
D|-------------------------------------------------------------------|
A|-------------------------------------------------------------------|
D|-------------------------------------------------------------------|
   1 + 2 + 3 + 4  +  1 + 2 + 3 + 4 + 1 + 2 + 3 + 4 + 1 + 2 + 3 + 4 +

0:28
G|-----------------------------------------------------------------|
D|-----------------------------------------------------------------|
A|-----------------------------------------------------------------|
D|-1-0-0-0-0-0-0-0-0-0-8-8-8-8-8-\-1-0-0-0-0-0-0-0-0-0-5-6-7-0-3-5-|
   1 + 2 + 3 + 4 + 1 + 2 + 3 + 4 + 1 + 2 + 3 + 4 + 1 + 2 + 3 + 4 +

G|-----------------------------------------------------------------|
D|-----------------------------------------------------------------|
A|-----------------------------------------------------------------|
D|-1-0-0-0-0-0-0-0-0-0-6-6-6-6-6-\-1-0-0-0-0-0-0-0-0-0-5-6-7-0-3-5-|
   1 + 2 + 3 + 4 + 1 + 2 + 3 + 4 + 1 + 2 + 3 + 4 + 1 + 2 + 3 + 4 +

G|-----------------------------------------------------------------|
D|-----------------------------------------------------------------|
A|-----------------------------------------------------------------|
D|-1-0-0-0-0-0-0-0-0-0-8-8-8-8-8-\-1-0-0-0-0-0-0-0-0-0-5-6-7-0-3-5-|
   1 + 2 + 3 + 4 + 1 + 2 + 3 + 4 + 1 + 2 + 3 + 4 + 1 + 2 + 3 + 4 +

G|--------------------------------------|
D|--------------------------------------|
A|--------------------------------------|
D|-1-0-0-0-0-0-0-0-0-0-10-10-10-10-10-\-|
   1 + 2 + 3 + 4 + 1 + 2  +  3  +  4  +  

0:54
G|-----------------------------------------------------------------|
D|-----------------------------------------------------------------|
A|-------------1---3-----3-3-6-5---------------1---3-----3-3-6-5---|
D|-6-----5-6---------------------5-6-----5-6---------------------6-|
   1 + 2 + 3 + 4 + 1 + 2 + 3 + 4 + 1 + 2 + 3 + 4 + 1 + 2 + 3 + 4 +

G|---------------------------------|
D|---------------------------------|
A|---------------------------------|
D|-8-----6-8---8---6---------------|
   1 + 2 + 3 + 4 + 1 + 2 + 3 + 4 +  

1:05
G|-----------------------------------------------------------------|
D|-----------------------------------------------------------------|
A|-----------------------------------------------------------------|
D|-1-0-0-0-0-0-0-0-0-0-5-6-7-0-3-5-1-0-0-0-0-0-0-0-0-0-8-8-8-8-8-\-|
   1 + 2 + 3 + 4 + 1 + 2 + 3 + 4 + 1 + 2 + 3 + 4 + 1 + 2 + 3 + 4 +

G|-----------------------------------------------------------------|
D|-----------------------------------------------------------------|
A|-----------------------------------------------------------------|
D|-1-0-0-0-0-0-0-0-0-0-5-6-7-0-3-5-1-0-0-0-0-0-0-0-0-0-6-6-6-6-6-\-|
   1 + 2 + 3 + 4 + 1 + 2 + 3 + 4 + 1 + 2 + 3 + 4 + 1 + 2 + 3 + 4 +

G|-----------------------------------------------------------------|
D|-----------------------------------------------------------------|
A|-----------------------------------------------------------------|
D|-1-0-0-0-0-0-0-0-0-0-5-6-7-0-3-5-1-0-0-0-0-0-0-0-0-0-8-8-8-8-8-\-|
   1 + 2 + 3 + 4 + 1 + 2 + 3 + 4 + 1 + 2 + 3 + 4 + 1 + 2 + 3 + 4 +

G|----------------------------------------------------------------------|
D|----------------------------------------------------------------------|
A|----------------------------------------------------------------------|
D|-1-0-0-0-0-0-0-0-0-0-5-6-7-0-3-5-1-0-0-0-0-0-0-0-0-0-10-10-10-10-10-\-|
   1 + 2 + 3 + 4 + 1 + 2 + 3 + 4 + 1 + 2 + 3 + 4 + 1 + 2  +  3  +  4  + 

1:34
G|-----------------------------------------------------------------|
D|-----------------------------------------------------------------|
A|-------------1---3-----3-3-6-5---------------1---3-----3-3-6-5---|
D|-6-----5-6---------------------5-6-----5-6---------------------6-|
   1 + 2 + 3 + 4 + 1 + 2 + 3 + 4 + 1 + 2 + 3 + 4 + 1 + 2 + 3 + 4 +

G|-----------------------------------------------------------------|
D|-----------------------------------------------------------------|
A|---------------/-8-----6-8---6---3-----1-3---1-------------------|
D|-8-----6-8---8-----------------------------------5-----3-5---3---|
   1 + 2 + 3 + 4 + 1 + 2 + 3 + 4 + 1 + 2 + 3 + 4 + 1 + 2 + 3 + 4 + 

1:48
G|-----------------------------------------------------------------|
D|-----------------------------------------------------------------|
A|-------------1---3-----3-3-6-5---------------1---3-----3-3-6-5---|
D|-6-----5-6---------------------5-6-----5-6---------------------6-|
   1 + 2 + 3 + 4 + 1 + 2 + 3 + 4 + 1 + 2 + 3 + 4 + 1 + 2 + 3 + 4 +

G|-----------------------------------------------------------------|
D|---------------------------------5-5-5-3-5-5-5-3-5-5-5-3-5-5-----|
A|---------------/-8-----6-8---6-----------------------------------|
D|-8-----6-8---8-----------------------------------------------5-\-|
   1 + 2 + 3 + 4 + 1 + 2 + 3 + 4 + 1 + 2 + 3 + 4 + 1 + 2 + 3 + 4 + 

2:03
G|-------------------------------------------------------------------|
D|o-----------------------------------------------------------------o|
A|o-----------------------------------------------------------------o|x4
D|--3-3-3-3-5-5-5-5-6-6-6-6-7-7-7-7-8-8-8-8-7-7-7-7-6-6-6-6-5-5-5-5--|
    1 e + a 2 e + a 3 e + a 4 e + a 1 e + a 2 e + a 3 e + a 4 e + a

2:17
G|-------------------------------------------------------------------|
D|o-----------------------------------------------------------------o|
A|o-----------------------------------------------------------------o|
D|--1-1-1-1-1-------1-1-1-1-1-------1-1-1-1-1-------1-1-1-1-1--------|
    1 e + a 2 e + a 3 e + a 4 e + a 1 e + a 2 e + a 3 e + a 4 e + a

rest

2:29
G|-----------------------------------------------------------------|
D|-----------------------------------------------------------------|
A|-----------------------------------------------------------------|
D|-1-0-0-0-0-0-0-0-0-0-8-8-8-8-8-\-1-0-0-0-0-0-0-0-0-0-5-6-7-0-3-5-|
   1 + 2 + 3 + 4 + 1 + 2 + 3 + 4 + 1 + 2 + 3 + 4 + 1 + 2 + 3 + 4 +

G|---------------------------------|
D|---------------------------------|
A|---------------------------------|
D|-1-0-0-0-0-0-0-0-0-0-8---8-\-----|
   1 + 2 + 3 + 4 + 1 + 2 + 3 + 4 +  

G|-----------------------------------------------------------------|
D|-----------------------------------------------------------------|
A|-----------------------------------------------------------------|
D|-1-0-0-0-0-0-0-0-0-0-5-6-7-0-3-5-1-0-0-0-0-0-0-0-0-0-8-8-8-8-8-\-|
   1 + 2 + 3 + 4 + 1 + 2 + 3 + 4 + 1 + 2 + 3 + 4 + 1 + 2 + 3 + 4 +

G|----------------------------------------------------------------------|
D|----------------------------------------------------------------------|
A|----------------------------------------------------------------------|
D|-1-0-0-0-0-0-0-0-0-0-5-6-7-0-3-5-1-0-0-0-0-0-0-0-0-0-10-10-10-10-10-\-|
   1 + 2 + 3 + 4 + 1 + 2 + 3 + 4 + 1 + 2 + 3 + 4 + 1 + 2  +  3  +  4  + 

2:54
G|------------------------------------------------------------------|
D|o-----------------------------------------------------------------|
A|o-------------1---3-----3-3-6-5---------------1---3-----3-3-6-5---|
D|--6-----5-6---------------------5-6-----5-6---------------------6-|
    1 + 2 + 3 + 4 + 1 + 2 + 3 + 4 + 1 + 2 + 3 + 4 + 1 + 2 + 3 + 4 +

G|------------------------------------------------------------------|
D|-----------------------------------------------------------------o|
A|---------------/-8-----6-8---6---3-----1-3---1-------------------o|
D|-8-----6-8---8-----------------------------------5-----3-5---3----|
   1 + 2 + 3 + 4 + 1 + 2 + 3 + 4 + 1 + 2 + 3 + 4 + 1 + 2 + 3 + 4 + 

3:23
G|-----------------------------------------------------------------|
D|-----------------------------------------------------------------|
A|-------------1---3-----3-3-6-5---------------1---3-----3-3-6-5---|
D|-6-----5-6---------------------5-6-----5-6---------------------6-|
   1 + 2 + 3 + 4 + 1 + 2 + 3 + 4 + 1 + 2 + 3 + 4 + 1 + 2 + 3 + 4 +

G|-----------------------------------------------------------------|
D|-----------------------------------------------------------------|
A|---------------/-8-----6-8---8---3-----1-3---3-------------------|
D|-8-----6-8---8-----------------------------------5-----3-5---5---|
   1 + 2 + 3 + 4 + 1 + 2 + 3 + 4 + 1 + 2 + 3 + 4 + 1 + 2 + 3 + 4 + 

G|-----------------------------------------------------------------|
D|-----------------------------------------------------------------|
A|-------------1---3-----3-3-6-5---------------1---3-----3-3-6-5---|
D|-6-----5-6---------------------5-6-----5-6---------------------6-|
   1 + 2 + 3 + 4 + 1 + 2 + 3 + 4 + 1 + 2 + 3 + 4 + 1 + 2 + 3 + 4 +

G|-----------------------------------------------------------------|
D|---------------------------------------------------------5---5---|
A|---------------/-8-----6-8-6-8---3-----1-3---3-1-----------------|
D|-8-----6-8---8-----------------------------------5-----3---------|
   1 + 2 + 3 + 4 + 1 + 2 + 3 + 4 + 1 + 2 + 3 + 4 + 1 + 2 + 3 + 4 + 

3:53
G|-----------------------------------------------------------------|
D|-----------------------------------------------------------------|
A|-----1-1-3-3-6---3-----1-3---3-------1-1-3-3-6---3-----1-3---3---|
D|-6-------------------------------6-------------------------------|
   1 + 2 + 3 + 4 + 1 + 2 + 3 + 4 + 1 + 2 + 3 + 4 + 1 + 2 + 3 + 4 +

G|-----------------------------------------------------------------|
D|---------------------------------------------------------5---5---|
A|---------------/-8-----6-8---8---3-----1-3---3-1-----------------|
D|-8-----6-8---8-----------------------------------5-----3---------|
   1 + 2 + 3 + 4 + 1 + 2 + 3 + 4 + 1 + 2 + 3 + 4 + 1 + 2 + 3 + 4 + 

G|-----------------------------------------------------------------|
D|-----------------------------------------------------------------|
A|-----1-1-3-3-6---3-----1-3---3-------1-1-3-3-6---3-----1-3---3---|
D|-6-------------------------------6-------------------------------|
   1 + 2 + 3 + 4 + 1 + 2 + 3 + 4 + 1 + 2 + 3 + 4 + 1 + 2 + 3 + 4 +

G|-----------------------------------------------------------------|
D|---------------------------------------------------------5---5---|
A|---------------/-8-----6-8-6-8---3-----1-3---3-1-----------------|
D|-8-----6-8---8-----------------------------------5-----3---------|
   1 + 2 + 3 + 4 + 1 + 2 + 3 + 4 + 1 + 2 + 3 + 4 + 1 + 2 + 3 + 4 + 
Tabbed by Dave Vucko

===============================================================================

Elizabeth

G|---------------------------------------------------------------------------------|
D|---------------------------------------------------------------------------------|
A|-6-------------------3-/-5-------6-\-5-------6-/-8-------8---4-------------------|
D|-----------------0-----------0-0---------0-----------0---------------------------|
   3 e + a 4 e + a 1 e + a 2 e + a 3 e + a 4 e + a 1 e + a 2 e + a 3 e + a 4 e + a

G|-----------------------------------------------------------------|
D|-----------------------------------------------------------------|
A|-----5-----------5-----------------------------------------------|
D|-0-------8---0-0-----6---0-0-0-0-6-9-6-9-6-------3-4-3-----------|
   1 e + a 2 e + a 3 e + a 4 e + a 1 e + a 2 e + a 3 e + a 4 e + a

G|-------------------------------------------------------------------------------------------------|
D|-------------------------------------------------------------------------------------------------|
A|-----3-/-5-------6-\-5-------6-/-8-------8---4---------------------------------------------------|
D|-0-----------0-0---------0-----------0---------------------------4-------------------------------|
   1 e + a 2 e + a 3 e + a 4 e + a 1 e + a 2 e + a 3 e + a 4 e + a 1 e + a 2 e + a 3 e + a 4 e + a

0:13
G|-----------------------------------------------------------------|
D|-----------------------------------------------------------------|
A|-----------------------------------------------------------------|
D|-4-------4-4-4-4-4---6---3---5---4-------4-------4-4-4-4-4-------|
   1 e + a 2 e + a 3 e + a 4 e + a 1 e + a 2 e + a 3 e + a 4 e + a

G|-----------------------------------------------------------------|
D|-----------------------------------------------------------------|
A|-----------------------------------------------------------------|
D|-4-------6-------3-------5-------4-------4-------4-4-4-4-4-------|
   1 e + a 2 e + a 3 e + a 4 e + a 1 e + a 2 e + a 3 e + a 4 e + a

G|-----------------------------------------------------------------|
D|-----------------------------------------------------------------|
A|-----------------------------------------------------------------|
D|-4-------4-4-4-4-4---6---3---5---4-------4-------4-4-4-4-4-------|
   1 e + a 2 e + a 3 e + a 4 e + a 1 e + a 2 e + a 3 e + a 4 e + a

G|-----------------------------------------------------------------|
D|-----------------------------------------------------------------|
A|-----------------------------------------------------------------|
D|-4---4-4-6-------3-------5-------6---6-6-6-6-6-6-6-6-6-6-7---7---|
   1 e + a 2 e + a 3 e + a 4 e + a 1 e + a 2 e + a 3 e + a 4 e + a

G|-----------------------------------------------------------------|
D|-----------------------------------------------------------------|
A|-----------------------------------------------------------------|
D|-6---6-6-7-------0-------8-------4-------4-------4-4-4-4-4-------|
   1 e + a 2 e + a 3 e + a 4 e + a 1 e + a 2 e + a 3 e + a 4 e + a

G|-----------------------------------------------------------------|
D|-----------------------------------------------------------------|
A|-----------------------------------------------------------------|
D|-4-------4-4-4-4-4---6---3---5---4-------4-------4-4-4-4-4-------|
   1 e + a 2 e + a 3 e + a 4 e + a 1 e + a 2 e + a 3 e + a 4 e + a

G|-----------------------------------------------------------------|
D|-----------------------------------------------------------------|
A|-----------------------------------------------------------------|
D|-4---4-4-6-------3-------5-------4-------4-------4-4-4-4-4-------|
   1 e + a 2 e + a 3 e + a 4 e + a 1 e + a 2 e + a 3 e + a 4 e + a

G|-----------------------------------------------------------------|
D|-----------------------------------------------------------------|
A|-----------------------------------------------------------------|
D|-4-------4-4-4-4-4---6---3---5---6---6-6-6-6-6-6-6-6-6-6-7---7---|
   1 e + a 2 e + a 3 e + a 4 e + a 1 e + a 2 e + a 3 e + a 4 e + a

G|-----------------------------------------------------------------|
D|-----------------------------------------------------------------|
A|-----------------------------------------------------------------|
D|-6---6-6-7-------0-------8-------4-------4-------4-4-4-4-4-------|
   1 e + a 2 e + a 3 e + a 4 e + a 1 e + a 2 e + a 3 e + a 4 e + a

G|-----------------------------------------------------------------|
D|-----------------------------------------------------------------|
A|-----------------------------------------------------------------|
D|-4---4-4-6-------3-------5-------1-------------------------------|
   1 e + a 2 e + a 3 e + a 4 e + a 1 e + a 2 e + a 3 e + a 4 e + a

0:51 Chorus
G|-----------------------------------------------------------------|
D|-8-----------8---8-------8-------8-----------8---8-------8-------|
A|-----------------------------------------------------------------|
D|-----------------------------------------------------------------|
   1 e + a 2 e + a 3 e + a 4 e + a 1 e + a 2 e + a 3 e + a 4 e + a

G|-----------------------------------------------------------------|
D|-8-----------8---8-------8---------------------------------------|
A|---------------------------------8-----------8---8-------8-------|
D|-----------------------------------------------------------------|
   1 e + a 2 e + a 3 e + a 4 e + a 1 e + a 2 e + a 3 e + a 4 e + a

G|-----------------------------------------------------------------|
D|-8-----------8---8-------8---------------------------------------|
A|---------------------------------9-----------9---9-------9-------|
D|-----------------------------------------------------------------|
   1 e + a 2 e + a 3 e + a 4 e + a 1 e + a 2 e + a 3 e + a 4 e + a

G|-----------------------------------------------------------------|
D|-----------------------------------------------------------------|
A|-4-----------4---4-------4-------8-------8---\---6-------6---\---|
D|-------------------------------------10--------------8-----------|
   1 e + a 2 e + a 3 e + a 4 e + a 1 e + a 2 e + a 3 e + a 4 e + a

G|-----------------------------------------------------------------|
D|-----------------------------------------------------------------|
A|-----------------------------------------------------------------|
D|-8-----------8---8-------8-------4-----------4---4-------4-------|
   1 e + a 2 e + a 3 e + a 4 e + a 1 e + a 2 e + a 3 e + a 4 e + a

G|-----------------------------------------------------------------|
D|-----------------------------------------3---3-----------3-------|
A|-3-----------3---3---4---3---------------------------------------|
D|-----------------------------4---3---------------3---------------|
   1 e + a 2 e + a 3 e + a 4 e + a 1 e + a 2 e + a 3 e + a 4 e + a

G|-----------------------------------------------------------------|
D|-----------------------------------------------------------------|
A|-----------------------------------------------------------------|
D|-8-----------8---8-------8-------4-----------4---4-----------4---|
   1 e + a 2 e + a 3 e + a 4 e + a 1 e + a 2 e + a 3 e + a 4 e + a

G|-------------------------------------------------------------------------------------------------|
D|-------------------------------------------------------------------------------------------------|
A|-4-----------4---4-------4-----------------------1---3---4---3-----------------------------------|
D|---------------------------------3-----------3-------------------3-------------------------------|
   1 e + a 2 e + a 3 e + a 4 e + a 1 e + a 2 e + a 3 e + a 4 e + a 1 e + a 2 e + a 3 e + a 4 e + a

1:22
G|-----------------------------------------------------------------|
D|-----------------------------------------------------------------|
A|-----------------------------------------------------------------|
D|-4-------6-------3-------5-------6---6-6-6-6-6---6-6-6-6-7-------|
   1 e + a 2 e + a 3 e + a 4 e + a 1 e + a 2 e + a 3 e + a 4 e + a

G|-------------------------------------------------------------------|
D|o-----------------------------------------------------------------o|
A|o-----------------------------------------------------------------o|x3
D|--6---6-6-7-----7-0-0---0-7-7-----6---6-6-6-6-6---6-6-6-6-7--------|
    1 e + a 2 e + a 3 e + a 4 e + a 1 e + a 2 e + a 3 e + a 4 e + a

G|-------------------------------------------------------------3h5-|
D|---------------------------------------------------------2h4-----|
A|-----------------------------------------------------------------|
D|-6---6-6-7-------0-------7-------2-------2-------2---------------|
   1 e + a 2 e + a 3 e + a 4 e + a 1 e + a 2 e + a 3 e + a 4 e + a

G|--------------------------------------------------------------3h5--|
D|o---------------------------------------------------------2h4-----o|
A|o-----------------------------------------------------------------o|x3
D|--2-------2-------2---4---1---3---2-------2-------2----------------|
    1 e + a 2 e + a 3 e + a 4 e + a 1 e + a 2 e + a 3 e + a 4 e + a

G|-----------------------------------------------------------------|
D|---------------------------------2-------4-------1-------3-------|
A|-----------------------------------------------------------------|
D|-2-------4-------1-------3---------------------------------------|
   1 e + a 2 e + a 3 e + a 4 e + a 1 e + a 2 e + a 3 e + a 4 e + a

1:56
G|-----------------------------------------------------------------|
D|-----------------------------------------------------------------|
A|-----3-/-5-------6-\-5-------6-/-8-------8---9-------------------|
D|-0-----------0-----------0-----------0---------------------------|
   1 e + a 2 e + a 3 e + a 4 e + a 1 e + a 2 e + a 3 e + a 4 e + a

G|-----------------------------------------------------------------|
D|-----------------------------------------------------------------|
A|-----5-----------5-----------------------------------------------|
D|-0-------8---0-0-----6---0-0-0-0-6-9-6-9-6-------3-4-3-----------|
   1 e + a 2 e + a 3 e + a 4 e + a 1 e + a 2 e + a 3 e + a 4 e + a

G|-----------------------------------------------------------------|
D|-----------------------------------------------------------------|
A|-----3-/-5-------6-\-5-------6-/-8-------8---9-------------------|
D|-0-----------0-----------0-----------0---------------------------|
   1 e + a 2 e + a 3 e + a 4 e + a 1 e + a 2 e + a 3 e + a 4 e + a

G|-----------------------------------------------------------------|
D|-----------------------------------------------------------------|
A|-1-1-1-1-1-1-3-3-3-3-3-3-4-4-4-4-8-8-8-8-8-8-7-7-7-7-7-7-6-------|
D|-----------------------------------------------------------------|
   1 e + a 2 e + a 3 e + a 4 e + a 1 e + a 2 e + a 3 e + a 4 e + a

2:11
G|-----------------------------------------------------------------|
D|-----------------------------------------------------------------|
A|-----3-/-5-------6-\-5-------6-/-8-------------------------------|
D|-0-----------0-----------0-----------0---7---8-------------------|
   1 e + a 2 e + a 3 e + a 4 e + a 1 e + a 2 e + a 3 e + a 4 e + a

G|-----------------------------------------------------------------|
D|-----------------------------------------------------------------|
A|-----------------------------------------------------------------|
D|-------------------------8---\---4-------6-------3-------5-------|
   1 e + a 2 e + a 3 e + a 4 e + a 1 e + a 2 e + a 3 e + a 4 e + a

G|-----------------------------5h7---------------------------------|
D|-------------------------4h6-------------------------------------|
A|-----------------------------------------------------------------|
D|-4-------4-------4---------------4-------4-------4---6---3---5---|
   1 e + a 2 e + a 3 e + a 4 e + a 1 e + a 2 e + a 3 e + a 4 e + a

G|-----------------------------5h7---------------------------------|
D|-------------------------4h6-------------------------------------|
A|-----------------------------------------------------------------|
D|-4-------4-------4---------------4---4-4-6-------3-------5-------|
   1 e + a 2 e + a 3 e + a 4 e + a 1 e + a 2 e + a 3 e + a 4 e + a

G|-----------------------------------------------------------------|
D|-----------------------------------------------------------------|
A|-----------------------------------------------------------------|
D|-6---6-6-6-6-6-6-6-6-6-6-7---7---6---6-6-7-------0-------8-------|
   1 e + a 2 e + a 3 e + a 4 e + a 1 e + a 2 e + a 3 e + a 4 e + a

G|-----------------------------5h7-----------------------------------------------------------------|
D|-------------------------4h6---------------------------------------------------------------------|
A|-------------------------------------------------------------------------------------------------|
D|-4-------4-------4---------------4---4-4-6-------3-------5-------1-------------------------------|
   1 e + a 2 e + a 3 e + a 4 e + a 1 e + a 2 e + a 3 e + a 4 e + a 1 e + a 2 e + a 3 e + a 4 e + a

2:36
G|-----------------------------------------------------------------|
D|-8-----------8---8---------------8-----------8---8---------------|
A|-----------------------------------------------------------------|
D|-----------------------------------------------------------------|
   1 e + a 2 e + a 3 e + a 4 e + a 1 e + a 2 e + a 3 e + a 4 e + a

G|-----------------------------------------------------------------|
D|-8-----------8---8-----------------------------------------------|
A|---------------------------------8-----------8---8---------------|
D|-----------------------------------------------------------------|
   1 e + a 2 e + a 3 e + a 4 e + a 1 e + a 2 e + a 3 e + a 4 e + a

G|-----------------------------------------------------------------|
D|-8-----------8---8-----------------------------------------------|
A|---------------------------------9-----------9---9---------------|
D|-----------------------------------------------------------------|
   1 e + a 2 e + a 3 e + a 4 e + a 1 e + a 2 e + a 3 e + a 4 e + a

G|-----------------------------------------------------------------|
D|-----------------------------------------------------------------|
A|-4-----------4---4-------4-------8-------8---\---6-------6---\---|
D|-------------------------------------10--------------8-----------|
   1 e + a 2 e + a 3 e + a 4 e + a 1 e + a 2 e + a 3 e + a 4 e + a

2:50
G|-----------------------------------------------------------------|
D|-----------------------------------------------------------------|
A|-----------------------------------------------------------------|
D|-8-----------4---8-------8-------4-----------4---4-------4-------|
   1 e + a 2 e + a 3 e + a 4 e + a 1 e + a 2 e + a 3 e + a 4 e + a

G|-----------------------------------------------------------------|
D|-----------------------------------------------------------------|
A|-3-----------3---3---4---3---------------------------------------|
D|-----------------------------4---3-----------3---3---1---3---4---|
   1 e + a 2 e + a 3 e + a 4 e + a 1 e + a 2 e + a 3 e + a 4 e + a

2:58
G|-----------------------------------------------------------------|
D|-------------------------------------------------4---4---3-------|
A|-------------------------------------------------------------6---|
D|-8-----------4---8-------8-------4-----------4-------------------|
   1 e + a 2 e + a 3 e + a 4 e + a 1 e + a 2 e + a 3 e + a 4 e + a

G|-----------------------------------------------------------------|
D|-----------------------------------------------------------------|
A|-4-----------4---4-------4-------8-------8---\---3---4---6---3---|
D|-------------------------------------10--------------------------|
   1 e + a 2 e + a 3 e + a 4 e + a 1 e + a 2 e + a 3 e + a 4 e + a

3:06
G|-----------------------------------------------------------------|
D|-----------------------------------------------------------------|
A|-5-----------5---5---------------1-----------1---1-------1---1---|
D|-----------------------------------------------------------------|
   1 e + a 2 e + a 3 e + a 4 e + a 1 e + a 2 e + a 3 e + a 4 e + a

G|-----------------------------------------------------------------|
D|-----------------------------------------------------------------|
A|---------------------------------0-----------0---0-------0---/---|
D|-2-----------2---2-----------------------------------------------|
   1 e + a 2 e + a 3 e + a 4 e + a 1 e + a 2 e + a 3 e + a 4 e + a

G|-----------------------------------------------------------------|
D|-----------------------------------------------------------------|
A|-5-----------5---5-------7---\---1-----------1---1-------1---1---|
D|-----------------------------------------------------------------|
   1 e + a 2 e + a 3 e + a 4 e + a 1 e + a 2 e + a 3 e + a 4 e + a

G|-----------------------------------------------------------------|
D|-----------------------------------------------------------------|
A|---------------------------------0-----------0---0-------0---/---|
D|-3-------3---3---3-------3---------------------------------------|
   1 e + a 2 e + a 3 e + a 4 e + a 1 e + a 2 e + a 3 e + a 4 e + a

3:21
G|-----------------------------------------------------------------|
D|-----------------------------------------------------------------|
A|-5-----------5---5-------7---\---1-----------1---1-------1---8---|
D|-----------------------------------------------------------------|
   1 e + a 2 e + a 3 e + a 4 e + a 1 e + a 2 e + a 3 e + a 4 e + a

G|-----------------------------------------------------------------|
D|-----------------------------------------------------------------|
A|-7-----------7---7-------7---\---0-----------0-------------------|
D|-------------------------------------------------5-----------5---|
   1 e + a 2 e + a 3 e + a 4 e + a 1 e + a 2 e + a 3 e + a 4 e + a

G|-----------------------------------------------------------------|
D|-----------------------------------------------------------------|
A|-5-----------5---5-------5---7---1-----------1---1-------1---1---|
D|-----------------------------------------------------------------|
   1 e + a 2 e + a 3 e + a 4 e + a 1 e + a 2 e + a 3 e + a 4 e + a

G|-----------------------------------------------------------------|
D|-----------------------------------------------------------------|
A|---------------------------------0-----------0---0-------0-------|
D|-3-----------3---3-------3---------------------------------------|
   1 e + a 2 e + a 3 e + a 4 e + a 1 e + a 2 e + a 3 e + a 4 e + a

3:36
G|-----------------------------------------------------------------|
D|-----------------------------------------------------------------|
A|---------------------------------1-----------1---1-------1---1---|
D|-0-----------0---0-----------0-----------------------------------|
   1 e + a 2 e + a 3 e + a 4 e + a 1 e + a 2 e + a 3 e + a 4 e + a

G|-----------------------------------------------------------------|
D|-----------------------------------------------------------------|
A|---------------------------------0-----------0---0-------0---0---|
D|-2-----------2---2-----------2-----------------------------------|
   1 e + a 2 e + a 3 e + a 4 e + a 1 e + a 2 e + a 3 e + a 4 e + a

G|-----------------------------------------------------------------|
D|-----------------------------------------------------------------|
A|-5-----------5---5-----------5---1-----------1---1-------1-------|
D|-----------------------------------------------------------------|
   1 e + a 2 e + a 3 e + a 4 e + a 1 e + a 2 e + a 3 e + a 4 e + a

G|-----------------------------------------------------------------|
D|-----------------------------------------------------------------|
A|-7-----------7---7---7---7---7---6-----------6---6---6---6---\---|
D|-----------------------------------------------------------------|
   1 e + a 2 e + a 3 e + a 4 e + a 1 e + a 2 e + a 3 e + a 4 e + a

G|-----------------------------------------------------------------|
D|-----------------------------------------------------------------|
A|-----3-/-5-------6-\-5-------6-/-8-------8---4-------------------|
D|-0-----------0-0---------0-----------0---------------------------|
   1 e + a 2 e + a 3 e + a 4 e + a 1 e + a 2 e + a 3 e + a 4 e + a
Tabbed by Dave Vucko

===============================================================================

Stand By Him

0:07
G|-------------------------------------------------------------------|
D|o-----------------------------------------------------------------o|
A|o-----------------------------------------------------------------o|x4
D|--0-0-0-0-0-0-0-0-0-0-7-7-7-6-6-6-0-0-0-0-0-0-0-0-0-0-7-7-7-6-6-6--|
    1 + 2 + 3 + 4 + 1 + 2 + 3 + 4 + 1 + 2 + 3 + 4 + 1 + 2 + 3 + 4 +

0:36
G|-----------------------------------------------------------------|
D|-----------------------------------------------------------------|
A|-----------2-2-2---------2-----------------2-2-2---------2-------|
D|-3-3-3-3-3-------3-3-3-3---------3-3-3-3-3-------3-3-3-3---------|
   1 + 2 + 3 + 4 + 1 + 2 + 3 + 4 + 1 + 2 + 3 + 4 + 1 + 2 + 3 + 4 +

0:43
G|-------------------------------------------------------------------|
D|o-----------------------------------------------------------------o|
A|o-----------------------------------------------------------------o|
D|--0-0-0-0-0-0-0-0-0-0-7-7-7-6-6-6-0-0-0-0-0-0-0-0-0-0-7-7-7-6-6-6--|
    1 + 2 + 3 + 4 + 1 + 2 + 3 + 4 + 1 + 2 + 3 + 4 + 1 + 2 + 3 + 4 +

0:58
G|-----------------------------------------------------------------|
D|-----------------------------------------------------------------|
A|-----------2-2-2---------2-----------------2-2-2---------2-------|
D|-3-3-3-3-3-------3-3-3-3---------3-3-3-3-3-------3-3-3-3---------|
   1 + 2 + 3 + 4 + 1 + 2 + 3 + 4 + 1 + 2 + 3 + 4 + 1 + 2 + 3 + 4 +

1:06
G|------------------------------------------------------------------|
D|o---------------------6-------6-----------------------6-------6---|
A|o---------1-1-3-3-4-4---6-------6---------1-1-3-3-4-4---6-------6-|
D|--1-1-3-3-----------------6-6-----1-1-3-3-----------------6-6-----|
    1 + 2 + 3 + 4 + 1 + 2 + 3 + 4 + 1 + 2 + 3 + 4 + 1 + 2 + 3 + 4 +

G|------------------------------------------------------------------|
D|-----6-------6-------4-------6-----------------------------------o|
A|-------6-------6-------4-4-4---6---------1-1-3-3-4---------------o|
D|-6-6-----6-6-----4-4-------------1-1-3-3-------------6------------|
   1 + 2 + 3 + 4 + 1 + 2 + 3 + 4 + 1 + 2 + 3 + 4 + 1 + 2 + 3 + 4 +

1:35
G|-----------------------------------------------------------------|
D|-----------------------------------------------------------------|
A|-----------------------------------------------------------------|
D|-0-------------------------------7-7-7---7-7-7---7-7-7---7-7-7-7-|
   1 e + a 2 e + a 3 e + a 4 e + a 1 e + a 2 e + a 3 e + a 4 e + a

G|-----------------------------------------------------------------|
D|-----------------------------------------------------------------|
A|-----------------------------------------------------------------|
D|-0-------------------------------6-6-6---6-6-6---6-6-6---6-6-6-6-|
   1 e + a 2 e + a 3 e + a 4 e + a 1 e + a 2 e + a 3 e + a 4 e + a

G|-----------------------------------------------------------------|
D|-----------------------------------------------------------------|
A|-5-5-5---5-5-5---5-5-5---5-5-5-----------------------------------|
D|---------------------------------8-8-8---8-8-8---8-8-8---8-8-8---|
   1 e + a 2 e + a 3 e + a 4 e + a 1 e + a 2 e + a 3 e + a 4 e + a

G|-----------------------------------------------------------------|
D|-----------------------------------------------------------------|
A|-----------------------------------------------------------------|
D|-7-7-7---7-7-7---7-7-7---7-7-7---6-6-6---6-6-6---6-6-6---6-6-6---|
   1 e + a 2 e + a 3 e + a 4 e + a 1 e + a 2 e + a 3 e + a 4 e + a

1:51
G|-------------------------------------------------|
D|-------------------------------------------------|
A|---------------------2---------------------------|
D|-3---3-/-7-7-1-1-1h3-----3---3-/-7---1-1-1-1-----|
   1 + 2 + 3 + 1 + 2 + 3 + 1 + 2 + 3 + 1 + 2 + 3 + 

G|-------------------------------------------------|
D|-------------------------------------------------|
A|---------------------2---------------------------|
D|-3---3-/-7---1---1h3-----3---3-/-7---1-1-1-1-----|
   1 + 2 + 3 + 1 + 2 + 3 + 1 + 2 + 3 + 1 + 2 + 3 + 

2:02
G|-------------------------------------------------------------------|
D|o-----------------------------------------------------------------o|
A|o-----------------------------------------------------------------o|x4
D|--0---0-0-0---0-0-0---0-0-0---0-0-0---0-0-7---7-7-7---6---6---6----|
    1 e + a 2 e + a 3 e + a 4 e + a 1 e + a 2 e + a 3 e + a 4 e + a

2:17
G|-----------------------------------------------------------------|
D|-----------------------------------------------------------------|
A|---------------------2---2-----------------------2-2-2---2-2-2---|
D|-3---3-3-3---3-3-3---------------3---3-3-3---3-3-----------------|
   1 e + a 2 e + a 3 e + a 4 e + a 1 e + a 2 e + a 3 e + a 4 e + a

G|-----------------------------------------------------------------|
D|-----------------------------------------------------------------|
A|---------------------2---2-----------------------2---------------|
D|-3---3-3-3---3-3-3---------------3---3-3-3---3-3-----------------|
   1 e + a 2 e + a 3 e + a 4 e + a 1 e + a 2 e + a 3 e + a 4 e + a

2:24
G|-----------------------------------------------------------------|
D|-----------------------------------------------------------------|
A|-----------------------------------------------------------------|
D|---------------------------------0-0-0-0-0-0-0-0-0-0-7-7-7-6-6-6-|
   1 + 2 + 3 + 4 + 1 + 2 + 3 + 4 + 1 + 2 + 3 + 4 + 1 + 2 + 3 + 4 +

G|-----------------------------------------------------------------|
D|-----------------------------------------------------------------|
A|-----------------------------------------------------------------|
D|-0-0-0-0-0-0-0-0-0-0-7-7-7-6-6-6-0-0-0-0-0-0-0-0-0-0-7-7-7-6-6-6-|
   1 + 2 + 3 + 4 + 1 + 2 + 3 + 4 + 1 + 2 + 3 + 4 + 1 + 2 + 3 + 4 +

G|-----------------------------------------------------------------|
D|-----------------------------------------------------------------|
A|-----------2-2-2---------2-2-2-2-----------2-2-2---------2-------|
D|-3-3-3-3-3-------3-3-3-3---------3-3-3-3-3-------3-3-3-3---------|
   1 + 2 + 3 + 4 + 1 + 2 + 3 + 4 + 1 + 2 + 3 + 4 + 1 + 2 + 3 + 4 +

2:47
G|------------------------------------------------------------------|
D|o---------------------6-------6-----------------------6-------6---|
A|o---------1-1-3-3-4-4---6-------6---------1-1-3-3-4-4---6-------6-|
D|--1-1-3-3-----------------6-6-----1-1-3-3-----------------6-6-----|
    1 + 2 + 3 + 4 + 1 + 2 + 3 + 4 + 1 + 2 + 3 + 4 + 1 + 2 + 3 + 4 +

G|------------------------------------------------------------------|
D|-----6-------6-------4-------6-----------------------------------o|
A|-------6-------6-------4-4-4---6---------1-1-3-3-4---------------o|
D|-6-6-----6-6-----4-4-------------1-1-3-3-------------6------------|
   1 + 2 + 3 + 4 + 1 + 2 + 3 + 4 + 1 + 2 + 3 + 4 + 1 + 2 + 3 + 4 +

3:17
G|------------------------------------------------------------------|
D|o---------------------6-------6-----------------------6-------6---|
A|o---------1-1-3-3-4-4---6-------6---------1-1-3-3-4-4---6-------6-|
D|--1-1-3-3-----------------6-6-----1-1-3-3-----------------6-6-----|
    1 + 2 + 3 + 4 + 1 + 2 + 3 + 4 + 1 + 2 + 3 + 4 + 1 + 2 + 3 + 4 +

G|------------------------------------------------------------------|-------|
D|-----6-------6-------4-------6-----------------------------------o|-------|
A|-------6-------6-------4-4-4---6---------1-1-3-3-4---------------o|-5-----|
D|-6-6-----6-6-----4-4-------------1-1-3-3-------------6------------|-------|
   1 + 2 + 3 + 4 + 1 + 2 + 3 + 4 + 1 + 2 + 3 + 4 + 1 + 2 + 3 + 4 +
Tabbed by Dave Vucko

===============================================================================

Satan Prayer

0:13
G|-------------------------------------------------------------------|
D|-------------------------------------------------------------------|
A|-5-4-------------------------------------------------------------5-|
D|-------0---0---0---0---0---0---0---0---0---0---0---0---0---0-------|
   + 1 + 2 + 3 + 4 + 1 + 2 + 3 + 4 + 1 + 2 + 3 + 4 + 1 + 2 + 3 + 4 +

G|-----------------------------------------------------|
D|-----------------------------------------------------|
A|-4---------------------------------------------------|
D|-----0---0---0-0-3-4---1-0---0---0---0---0---0---0-0-|
   1 + 2 + 3 + 4 + 1 + 2 + 1 + 2 + 3 + 4 + 1 + 2 + 3 + 

0:27
G|-----------------------------------------------------------------|
D|-----------------------------------------------------------------|
A|-5---------------4-----------------------5---3h5---------5---3h5-|
D|---------------------------------0-----0---------0-----0---------|
   1 + 2 + 3 + 4 + 1 + 2 + 3 + 4 + 1 + 2 + 3 + 4 + 1 + 2 + 3 + 4 +

G|-----------------------------------------------------------------|
D|-------------------------6---5h6---------------------------------|
A|---------5-5-3h5-4-----4-----------------5---3h5---------5---3h5-|
D|-0-----0-------------------------0-----0---------0-----0---------|
   1 + 2 + 3 + 4 + 1 + 2 + 3 + 4 + 1 + 2 + 3 + 4 + 1 + 2 + 3 + 4 +

0:41
G|-------------------------6---5-----------------------------------|
D|---------------------------------6-----6-----5-----------3h5-3h5-|
A|---------5---3h5-4-----4-------------------------3-----3---------|
D|-0-----0---------------------------------------------------------|
   1 + 2 + 3 + 4 + 1 + 2 + 3 + 4 + 1 + 2 + 3 + 4 + 1 + 2 + 3 + 4 +

G|---------------------------------------------------------------------------------|
D|---------5-------------------------------6---5h6---------------------------------|
A|-3-----3-----3-4---------5---3h5-4-----4-----------------5---3h5---------5---3-4-|
D|-----------------0-----0-------------------------0-----0---------0-----0---------|
   1 + 2 + 3 + 4 + 1 + 2 + 3 + 4 + 1 + 2 + 3 + 4 + 1 + 2 + 3 + 4 + 1 + 2 + 3 + 4 +

0:57
G|-------------7---------------10--9-------------/-12----9---------|
D|-------7---------------10--------------10----7---------------10--|
A|-5---------------8-----------------------------------------------|
D|-----------------------------------------------------------------|
   1 + 2 + 3 + 4 + 1 + 2 + 3 + 4 + 1 + 2 + 3 + 4 + 1 + 2 + 3 + 4 +

G|-14----12--------------------------------|
D|-------------15--13----------------------|
A|---------------------------------------5-|
D|-----------------------------------------|
   1 + 2 + 3 + 4 + 1 + 2 + 3 + 4 + 1 + 2 + 

G|-----------------------------------------------------------------|
D|-----------------------------------------------------------------|
A|-4-------------------------------------------------------------5-|
D|-----0---0---0---0---0---0---0---0---0---0---0---0---0---0-------|
   1 + 2 + 3 + 4 + 1 + 2 + 3 + 4 + 1 + 2 + 3 + 4 + 1 + 2 + 3 + 4 +

G|-----------------------------------------------------|
D|-----------------------------------------------------|
A|-4---------------------------------------------------|
D|-----0---0---0-0-3-4---1-0---0---0---0---0---0-------|
   1 + 2 + 3 + 4 + 1 + 2 + 1 + 2 + 3 + 4 + 1 + 2 + 3 + 

1:24
G|--------------------------------------------6---------6-----------|
D|o-----------------------------------------6---------------6-------|
A|o---------5---------------5-------4-----4-------------------------|
D|--0-----0---0---------0-------------------------------------------|
    1 e + a 2 e + a 3 e + a 4 e + a 1 e + a 2 e + a 3 e + a 4 e + a 

G|------------------------------------------------------------------|
D|-----------------------------------------------------------------o|
A|---------5---------------5---------------5---------------5-------o|
D|-0-----0---0---------0-----------0-----0---0---------0------------|
   1 e + a 2 e + a 3 e + a 4 e + a 1 e + a 2 e + a 3 e + a 4 e + a 

G|-------------------------------------------6---------6-------------------------------------------|
D|-----------------------------------------6---------------6---------------6---------------6-------|
A|---------5---------------5-------4-----4---------------------------------------------------------|
D|-0-----0---0---------0-------------------------------------------6-----6---6---------6-----------|
   1 e + a 2 e + a 3 e + a 4 e + a 1 e + a 2 e + a 3 e + a 4 e + a 1 e + a 2 e + a 3 e + a 4 e + a 

G|---------5---------------5---------------5-----------5-----------|
D|-----------------------------------------------------------------|
A|-3-----3---3---------3-----------3-----3---3-------------3-------|
D|-----------------------------------------------------------------|
   1 e + a 2 e + a 3 e + a 4 e + a 1 e + a 2 e + a 3 e + a 4 e + a 

1:48
G|-------------------------------------------6---------6-----------|
D|-----------------------------------------6---------------6-------|
A|---------5---------------5-------4-----4-------------------------|
D|-0-----0---0---------0-------------------------------------------|
   1 e + a 2 e + a 3 e + a 4 e + a 1 e + a 2 e + a 3 e + a 4 e + a 

G|-----------------------------------------------------------------|
D|-----------------------------------------------------------------|
A|---------5---------------5---------------5---------------3---4---|
D|-0-----0---0---------0-----------0-----0---0---------0-----------|
   1 e + a 2 e + a 3 e + a 4 e + a 1 e + a 2 e + a 3 e + a 4 e + a 

G|-----------------------------------------------------------------|
D|-----------------------------------------3---------------3-------|
A|---------5---------------5---------------------------------------|
D|-0-----0---0---------0-----------3-----3---3---------3-----------|
   1 e + a 2 e + a 3 e + a 4 e + a 1 e + a 2 e + a 3 e + a 4 e + a 

G|-----------------------------------------5---------------5-------|
D|---------7---------------7---------------------------------------|
A|-0-----0---0---------0-----------3-----3---3---------3-----------|
D|-----------------------------------------------------------------|
   1 e + a 2 e + a 3 e + a 4 e + a 1 e + a 2 e + a 3 e + a 4 e + a 

G|-----------------------/-7---------------------------------------|
D|-------------7-------------------6-------------------------------|
A|-5---------------------------------------------------------------|
D|-----------------------------------------------------------------|
   1 e + a 2 e + a 3 e + a 4 e + a 1 e + a 2 e + a 3 e + a 4 e + a 

2:06
G|-----------------------------------------------------------5h7---|
D|-------------------------------------------------------5h7-----7-|
A|-----------------------------------------------------------------|
D|-0-0-----0-0-----0-0-----0-0-----0-0-----0-0-----0-0-------------|
   1 + 2 + 3 + 4 + 1 + 2 + 3 + 4 + 1 + 2 + 3 + 4 + 1 + 2 + 3 + 4 +

G|-----------------------------------------------------------------|
D|-----------------------------------------------------------------|
A|-----------------------------------------------------------------|
D|-0-0-----0-0-----0-0-----0-0-----0-0-----0-0-----0-0-----7-7-7-\-|
   1 + 2 + 3 + 4 + 1 + 2 + 3 + 4 + 1 + 2 + 3 + 4 + 1 + 2 + 3 + 4 +

2:20
G|-----------------------------------------------------------------|
D|-----------------------------------------------------------------|
A|-------------------------3-r-3-/-6-r-6-\-1-r-1---0-r-0---0-r-0---|
D|-0-r-0---0-r-0---3-r-3-------------------------------------------|
   1 + 2 + 3 + 4 + 1 + 2 + 3 + 4 + 1 + 2 + 3 + 4 + 1 + 2 + 3 + 4 +

G|-----------------------------------------------------------------|
D|-----------------------------------------------------------------|
A|-------------------------3-r-3-/-6-r-6-\-1-r-1-------------------|
D|-0-r-0---0-r-0---3-r-3-------------------------------2---3---4-5-|
   1 + 2 + 3 + 4 + 1 + 2 + 3 + 4 + 1 + 2 + 3 + 4 + 1 + 2 + 3 + 4 +

2:36
G|-----------------------------------------------------------------|
D|-----------------------------------------------------------------|
A|-----------------------------------------------------------------|
D|-1-1-1-1-2-2-2-2-3-3-3-3-4---5---1-1-1-1-2-2-2-2-3-3-3-3-4---5---|
   1 e + a 2 e + a 3 e + a 4 e + a 1 e + a 2 e + a 3 e + a 4 e + a 

G|-----------------------------------------------------------------|
D|-----------------------------------------------------------------|
A|-----------------------------------------------------------------|
D|-----0---1-----1-2-----2-3-3-4-----------2-2-2-2-3-3-3-3-4---5---|
   1 e + a 2 e + a 3 e + a 4 e + a 1 e + a 2 e + a 3 e + a 4 e + a 

G|-----------------------------------------------------------------|
D|-----------------------------------------------------------------|
A|-----------------------------------------------------------------|
D|-1-1-1-1-2-2-2-2-3-3-3-3-4---5---1-1-1-1-2-2-2-2-3-3-3-3-4---5---|
   1 e + a 2 e + a 3 e + a 4 e + a 1 e + a 2 e + a 3 e + a 4 e + a 

G|-----------------------------------------------------------------|
D|-----------------------------------------------------------------|
A|---------------------------------5-------------------------------|
D|-----0---1-------2-------3---4-----------------------------------|
   1 e + a 2 e + a 3 e + a 4 e + a 1 e + a 2 e + a 3 e + a 4 e + a 

2:52
G|-----------------------------------------------------------------|
D|---------------------------------------------------------6---5h6-|
A|---------5---3h5---------5---3h5---------5-5-3h5-4-----4---------|
D|-0-----0---------0-----0---------0-----0-------------------------|
   1 + 2 + 3 + 4 + 1 + 2 + 3 + 4 + 1 + 2 + 3 + 4 + 1 + 2 + 3 + 4 +

G|---------------------------------|
D|---------------------------------|
A|---------5---3h5---------5---3-4-|
D|-0-----0---------0-----0---------|
   1 + 2 + 3 + 4 + 1 + 2 + 3 + 4 +

3:03
G|-------------7---------------10--9-------------------------------|
D|-------7---------------10--------------10--------10--------------|
A|-5---------------8---------------------------10--------10----7---|
D|-----------------------------------------------------------------|
   1 + 2 + 3 + 4 + 1 + 2 + 3 + 4 + 1 + 2 + 3 + 4 + 1 + 2 + 3 + 4 +

G|-----------------------------------------------------------------|
D|-----------------------3-----5---3-----2-------------------------|
A|-5-----7-----8-\-1---------------------------1---0---------------|
D|-------------------------------------------------------5-----3-2-|
   1 + 2 + 3 + 4 + 1 + 2 + 3 + 4 + 1 + 2 + 3 + 4 + 1 + 2 + 3 + 4 +

3:18
G|-------------------------------------------------------------5---|
D|-----------------------------3---------------7-------------------|
A|-------------5-\-----------------0-----0---0-----3-----3---3-----|
D|-0-----0---0-----3-----3---3-------------------------------------|
   1 + 2 + 3 + 4 + 1 + 2 + 3 + 4 + 1 + 2 + 3 + 4 + 1 + 2 + 3 + 4 +

G|-------------5---8-------------------------------|
D|-------7-----------------------------------------|
A|-5-----------------------------------------------|
D|-------------------------------------------------|
   1 + 2 + 3 + 4 + 1 + 2 + 3 + 4 + 1 + 2 + 3 + 4 +

3:30
G|-----------------------------------------------------------------|
D|-----------------------------------------------------------------|
A|-------------------------------------------------0---0-0-0---0-0-|
D|-0---0---0---0---0---0---0---0---0---0---0---0-------------------|
   1 + 2 + 3 + 4 + 1 + 2 + 3 + 4 + 1 + 2 + 3 + 4 + 1 + 2 + 3 + 4 +

G|-----------------------------------------------------------------|
D|-----------------------------------------------------------------|
A|-----------------------------------------------------------------|
D|-0---0---0---0---0---0---0---0---0---0---0---0---7---7---7---7-\-|
   1 + 2 + 3 + 4 + 1 + 2 + 3 + 4 + 1 + 2 + 3 + 4 + 1 + 2 + 3 + 4 +

3:46
G|-------------------------------------------------------------------|
D|o-----------------------------------------------------------------o|
A|o-------------------------3-r-3-/-6-r-6-\-1-r-1---0-r-0---0-r-0---o|x5
D|--0-r-0---0-r-0---3-r-3--------------------------------------------|
    1 + 2 + 3 + 4 + 1 + 2 + 3 + 4 + 1 + 2 + 3 + 4 + 1 + 2 + 3 + 4 +

4:22
G|-----------------------------------------------------------------|
D|-----------------------------------------------------------------|
A|-------------------------3-r-3-/-6-r-6-\-1-r-1-------------------|
D|-0-r-0---0-r-0---3-r-3-------------------------------2---3---4-5-|
   1 + 2 + 3 + 4 + 1 + 2 + 3 + 4 + 1 + 2 + 3 + 4 + 1 + 2 + 3 + 4 +

G|-----------------------------------------------------------------|
D|-----------------------------------------------------------------|
A|-----------------------------------------------------------------|
D|-----0---1-------2-------3---4---0-------------------------------|
   1 e + a 2 e + a 3 e + a 4 e + a 1 e + a 2 e + a 3 e + a 4 e + a 

===============================================================================

Death Knell

0:14
G|-----------------------------------|
D|o---------------------------------o|
A|o---------------------5-----------o|x9
D|--1-0-0---1-0-0---1-0-----6--------|
    1 + 2 + 3 + 4 + 1 + 2 + 3 + 4 +

G|---------------------------------|
D|---------------------------------|
A|---------------------5-----------|
D|-1-0-0---1-0-0---1-0-----6---8---|
   1 + 2 + 3 + 4 + 1 + 2 + 3 + 4 +

0:50
G|-----------------------------------------------------------------|
D|-----7-------7-------7-------7-------6-------6-------6-------6---|
A|-----------------------------------------------------------------|
D|-7-7---7---7---7---7---7---7-----6-6---6---6---6---6---6---6-----|
   1 + 2 + 3 + 4 + 1 + 2 + 3 + 4 + 1 + 2 + 3 + 4 + 1 + 2 + 3 + 4 +

G|-------------------------------------4-------4-------4-------4---|
D|-----1-------1-------1-------1-----------------------------------|
A|---------------------------------2-2---2---2---2---2---2---2-----|
D|-1-1---1---1---1---1---1---1-------------------------------------|
   1 + 2 + 3 + 4 + 1 + 2 + 3 + 4 + 1 + 2 + 3 + 4 + 1 + 2 + 3 + 4 +

G|-----------------------------------------------------------------|
D|-0-------0-------0-------0---1---0-------0-------0-------0---1---|
A|-----------------------------------------------------------------|
D|---0-0-0---0-0-0---0-0-0---0-------0-0-0---0-0-0---0-0-0---0-----|
   1 + 2 + 3 + 4 + 1 + 2 + 3 + 4 + 1 + 2 + 3 + 4 + 1 + 2 + 3 + 4 +

G|-----------------------------------------------------------------|
D|-0-------0-------0-------0---1---0-------0-------0---------------|
A|-----------------------------------------------------------------|
D|---0-0-0---0-0-0---0-0-0---0-------0-0-0---0-0-0---0-0-0-6-------|
   1 + 2 + 3 + 4 + 1 + 2 + 3 + 4 + 1 + 2 + 3 + 4 + 1 + 2 + 3 + 4 +

1:21
G|-----------------------7-------------------------------7---------|
D|-------------------------6-------------------------------6-------|
A|---------------------------------5-------------------------------|
D|-----------------------------------------------------------------|
   1 + 2 + 3 + 4 + 1 + 2 + 3 + 4 + 1 + 2 + 3 + 4 + 1 + 2 + 3 + 4 +

G|------------------------7-------------------------------7----------|
D|o-------------------------6-------------------------------6-------o|
A|o-5-------------------------------5-------------------------------o|
D|-------------------------------------------------------------------|
    1 + 2 + 3 + 4 + 1 + 2 + 3 + 4 + 1 + 2 + 3 + 4 + 1 + 2 + 3 + 4 +

G|-----------------------7-----------------------------------------|
D|-------------------------6---------------------------------------|
A|-5-------------------------------5-------------------------------|
D|---------------------------------------------------------6---8---|
   1 + 2 + 3 + 4 + 1 + 2 + 3 + 4 + 1 + 2 + 3 + 4 + 1 + 2 + 3 + 4 +

1:50
G|-----------------------------------------------------------------|
D|-----7-------7-------7-------7-------6-------6-------6-------6-/-|
A|-----------------------------------------------------------------|
D|-7-7---7---7---7---7---7---7-----6-6---6---6---6---6---6---6-----|
   1 + 2 + 3 + 4 + 1 + 2 + 3 + 4 + 1 + 2 + 3 + 4 + 1 + 2 + 3 + 4 +

G|---------------------------------------------------------------------------------|
D|-------10----------10----------10----------10-\------6-------6-------6-------6-/-|
A|---------------------------------------------------------------------------------|
D|-10-10----10----10----10----10----10----10-------6-6---6---6---6---6---6---6-----|
   1  +  2  +  3  +  4  +  1  +  2  +  3  +  4  +  1 + 2 + 3 + 4 + 1 + 2 + 3 + 4 +

G|---------------------------------------------------------------------------------|
D|-------13----------13----------13----------13-\------5-------5-------5---3-------|
A|-----------------------------------------------------------------------5---5-3h5-|
D|-13-13----13----13----13----13----13----13-------5-5---5---5---5---5-------------|
   1  +  2  +  3  +  4  +  1  +  2  +  3  +  4  +  1 + 2 + 3 + 4 + 1 + 2 + 3 + 4 +

2:12
G|-----------------------------------------------------------------------------|
D|-----------------------------------------------------------------------------|
A|-----------------------------------------------------------------------------|
D|-4-4---4-4-----------4-4---4-4-----------4-4---4-4-------------------1-4-1---|
   1 + 2 + 3 + 4 + 5 + 1 + 2 + 3 + 4 + 5 + 1 + 2 + 3 + 4 + 5 + 6 + 7 + 8 + 9 +

G|-------------------------------------------------------------------|
D|o-----------------------------------------------------------------o|
A|o-----------------------------------------------------------------o|
D|--0-----0-0-----0-0-----0-1-1-1---0-----0-4-----4-4-----4-1-4-1----|
    1 + 2 + 3 + 4 + 1 + 2 + 3 + 4 + 1 + 2 + 3 + 4 + 1 + 2 + 3 + 4 +

2:35
G|-----------------------------------------------------------------------|
D|o---------------------------------------------------------------------o|
A|o---------------------------------------------------------------------o|
D|--0---12\0-0---12\0-0---12\0-1-1-1---0---12\0-4---4-4-4---4-4-1-4-1----|
    1 + 2  + 3 + 4  + 1 + 2  + 3 + 4 + 1 + 2  + 3 + 4 + 1 + 2 + 3 + 4 +

G|-----------------------------------------------------------------|
D|-----------------------------------------------------------------|
A|-----------------------------------------------------------------|
D|-0-----------------------1-1-1---0-------4---------------1-4-1---|
   1 + 2 + 3 + 4 + 1 + 2 + 3 + 4 + 1 + 2 + 3 + 4 + 1 + 2 + 3 + 4 +

G|-----------------------------------------------------------------|
D|-----------------------------------------------------------------|
A|-----------------------------------------------------------------|
D|-0-----------------------1-1-1---0-------6-----------------------|
   1 + 2 + 3 + 4 + 1 + 2 + 3 + 4 + 1 + 2 + 3 + 4 + 1 + 2 + 3 + 4 +

3:05
G|------------------------------------|
D|o----------------------------------o|
A|o----------------------------------o|x4
D|--1-0-0-0-1-0-0-0-1-0-12-\-6--------|
    1 + 2 + 3 + 4 + 1 + 2  + 3 + 4 +

3:20
G|-----------------------------------|
D|o---------------------------------o|
A|o-6-------6-------6---5-----------o|x3
D|----0-0-0---0-0-0---0-----6--------|
    1 + 2 + 3 + 4 + 1 + 2 + 3 + 4 +

G|---------------------------------|
D|---------------------------------|
A|-6-------6-------6---------------|
D|---0-0-0---0-0-0---0-0-0-6---8---|
   1 + 2 + 3 + 4 + 1 + 2 + 3 + 4 +

3:34
G|-----------------------------------------------------------------|
D|-----7-------7-------7-------7-------6-------6-------6-------6-\-|
A|-----------------------------------------------------------------|
D|-7-7---7---7---7---7---7---7-----6-6---6---6---6---6---6---6-----|
   1 + 2 + 3 + 4 + 1 + 2 + 3 + 4 + 1 + 2 + 3 + 4 + 1 + 2 + 3 + 4 +

G|-----------------------------------------------------------------|
D|-----1-------1-------1-------1-/-----9-------9-------9-----------|
A|-------------------------------------------------------------6---|
D|-1-1---1---1---1---1---1---1-----9-9---9---9---9---9---9---9-----|
   1 + 2 + 3 + 4 + 1 + 2 + 3 + 4 + 1 + 2 + 3 + 4 + 1 + 2 + 3 + 4 +

3:50
G|-----------------------------------------------------------------|
D|-0-------0-------0-------0---1-1-0-------0-------0-------0---1-1-|
A|-----------------------------------------------------------------|
D|---0-0-0---0-0-0---0-0-0---0-------0-0-0---0-0-0---0-0-0---0-----|
   1 + 2 + 3 + 4 + 1 + 2 + 3 + 4 + 1 + 2 + 3 + 4 + 1 + 2 + 3 + 4 +

G|-----------------------------------------------------------------|
D|-0-------0-------0-------0-1-1-1-0-------0-------0---------------|
A|---------------------------------------------------------6-6-6-\-|
D|---0-0-0---0-0-0---0-0-0-----------0-0-0---0-0-0---0-0-0---------|
   1 + 2 + 3 + 4 + 1 + 2 + 3 + 4 + 1 + 2 + 3 + 4 + 1 + 2 + 3 + 4 +

4:04
G|-------------------------------------------------------------------|
D|o-0-------0-------0-------0-------0-------0-------0-------0-------o|
A|o-----------------------------------------------------------------o|
D|----0-0-0---0-0-0---0-0-0---0-1-1---0-0-0---0-0-0---0-0-0---1-1-1--|
    1 + 2 + 3 + 4 + 1 + 2 + 3 + 4 + 1 + 2 + 3 + 4 + 1 + 2 + 3 + 4 +

===============================================================================

Prime Mover

0:03
G|--6-----------------------------------------------6-----------------------------------------------|
D|o------------------------------------------------------------------------------------------------o|
A|o------------------------------------------------------------------------------------------------o|x3
D|--------------------------------------------------------------------------------------------------|
    1 2 3 4 5 6 1 2 3 4 5 6 1 2 3 4 5 6 1 2 3 4 5 6 1 2 3 4 5 6 1 2 3 4 5 6 1 2 3 4 5 6 1 2 3 4 5 6

0:24
G|--------------------------------------------------------------------------------------------------|
D|o------------------------------------------------------------------------------------------------o|
A|o------------------------------------------------------------------------------------------------o|x3
D|--7-----8---\-4-----------1---/-6-----4-----------7-----8---\-4-----------1---/-8-----7-----------|
    1 2 3 4 5 6 1 2 3 4 5 6 1 2 3 4 5 6 1 2 3 4 5 6 1 2 3 4 5 6 1 2 3 4 5 6 1 2 3 4 5 6 1 2 3 4 5 6

0:45
G|-------------------|---------------------------------------------------|
D|-------------------|o-------------------------------------------------o|
A|-------------------|o-------4-----------4-----------4---5-4-----4-----o|
D|-6-6-6-0-----------|--0-0-0-------0-0-0-------0-0-0---0----------------|
   1 2 3 4 5 6 7 8 9    1 2 3 4 5 6 1 2 3 4 5 6 1 2 3 4 5 6 1 2 3 4 5 6

G|-------------------------------------------------------------------------------------------------|
D|-------------------------------------------------------------------------------------------------|
A|-------4-----------4-----------4---5-4-----4-----------4-----------4-----------4---5-4-----4-\---|
D|-0-0-0-------0-0-0-------0-0-0---0---------------0-0-0-------0-0-0-------0-0-0---0---------------|
   1 2 3 4 5 6 1 2 3 4 5 6 1 2 3 4 5 6 1 2 3 4 5 6 1 2 3 4 5 6 1 2 3 4 5 6 1 2 3 4 5 6 1 2 3 4 5 6

1:01
G|---------------------------------------------------|
D|o-------------------------------------------------o|
A|o-------4-----------4-----------4---5-4-----4-----o|
D|--0-0-0-------0-0-0-------0-0-0---0----------------|
    1 2 3 4 5 6 1 2 3 4 5 6 1 2 3 4 5 6 1 2 3 4 5 6

G|-------------------------------------------------------------------------------------------------|
D|-------------------------------------------------------------------------------------------------|
A|-------4-----------4-----------4---5-4-----4-----------4-----------4-----------4---5-4-----4-\---|
D|-0-0-0-------0-0-0-------0-0-0---0---------------0-0-0-------0-0-0-------0-0-0---0---------------|
   1 2 3 4 5 6 1 2 3 4 5 6 1 2 3 4 5 6 1 2 3 4 5 6 1 2 3 4 5 6 1 2 3 4 5 6 1 2 3 4 5 6 1 2 3 4 5 6

1:15
G|------------------------------------------------------------------------------------------------|
D|------------------------------------------------------------------------------------------------|
A|-------------------------------------------------1---1-1-----1---1-1----------------------------|
D|-6---6-6-----6---6-6-----2---2-2-----2---2-2-----------------------------0---0-0-----0---0-0----|
   1 2 3 4 5 6 1 2 3 4 5 6 1 2 3 4 5 6 1 2 3 4 5 6 1 2 3 4 5 6 1 2 3 4 5 6 1 2 3 4 5 6 1 2 3 4 5 6

G|------------------------------------------------------------------------------------------------|
D|------------------------------------------------------------------------------------------------|
A|-------------------------3---3-3-----3---3-3----------------------------------------------------|
D|-2---2-2-----2---2-2-----------------------------6---6-7-----6---6-7-----6---6-7-6-4-7---6-7----|
   1 2 3 4 5 6 1 2 3 4 5 6 1 2 3 4 5 6 1 2 3 4 5 6 1 2 3 4 5 6 1 2 3 4 5 6 1 2 3 4 5 6 1 2 3 4 5 6

1:29
G|------------------------------------------------------------------------------------------------|
D|------------------------------------------------------------------------------------------------|
A|-------------------------------------------------1---1-1-----1---1-1-----5---5-5-----5---5-5----|
D|-6---6-6-----6---6-6-----2---2-2-----2---2-2----------------------------------------------------|
   1 2 3 4 5 6 1 2 3 4 5 6 1 2 3 4 5 6 1 2 3 4 5 6 1 2 3 4 5 6 1 2 3 4 5 6 1 2 3 4 5 6 1 2 3 4 5 6

G|------------------------------------------------------------------------------------------------|
D|-------------4-4-4-2-2-2------------------------------------------------------------------------|
A|-------------------------3---3-3-----3---3-3----------------------------------------------------|
D|-2-2-2-4-4-4-------------------------------------6---6-7-----6---6-7-----6---6-7-6-4-7---6-7----|
   1 2 3 4 5 6 1 2 3 4 5 6 1 2 3 4 5 6 1 2 3 4 5 6 1 2 3 4 5 6 1 2 3 4 5 6 1 2 3 4 5 6 1 2 3 4 5 6

1:44
G|--------------------------------------------------------------------------------------------------|
D|o------------------------------------------------------------------------------------------------o|
A|o------------------------------------------------------------------------------------------------o|
D|--0-----------------------6-----------------------0-----------------------8-----------------------|
    1 2 3 4 5 6 1 2 3 4 5 6 1 2 3 4 5 6 1 2 3 4 5 6 1 2 3 4 5 6 1 2 3 4 5 6 1 2 3 4 5 6 1 2 3 4 5 6

G|-------------------------------------------------------------------------------------------------|
D|-------------------------------------------------------------------------------------------------|
A|-------------------------------------------------------4-----------4-----------4---5-4-----4-\---|
D|-2-----------------------1-----------------------0-0-0-------0-0-0-------0-0-0---0---------------|
   1 2 3 4 5 6 1 2 3 4 5 6 1 2 3 4 5 6 1 2 3 4 5 6 1 2 3 4 5 6 1 2 3 4 5 6 1 2 3 4 5 6 1 2 3 4 5 6

2:05
G|---------------------------------------------------|
D|o-------------------------------------------------o|
A|o-------2-----------2-----------2-----2-2-2-2-----o|x4
D|--3-3-3-------3-3-3-------3-3-3---3-3--------------|
    1 2 3 4 5 6 1 2 3 4 5 6 1 2 3 4 5 6 1 2 3 4 5 6

2:19
G|--------------------------------------------------------------------------------------------------|
D|o------------------------------------------------------------------------------------------------o|
A|o------------------------------------------------------------------------------------------------o|
D|--7-----8---\-4---4-4-----1---/-6-----4---4-4-----7-----8---\-4---4-4-----1---/-8-----7---7-7-----|
    1 2 3 4 5 6 1 2 3 4 5 6 1 2 3 4 5 6 1 2 3 4 5 6 1 2 3 4 5 6 1 2 3 4 5 6 1 2 3 4 5 6 1 2 3 4 5 6

2:34
G|-------------------------------------------------------------------------|
D|-------------------------------------------------------------------------|
A|-------------------------------------------------------------------------|
D|-0-0-0-------0-0-0-------0-0-0-------0-0-0-------------------------------|
   1 2 3 4 5 6 1 2 3 4 5 6 1 2 3 4 5 6 1 2 3 4 5 6 1 2 3 4 5 6 1 2 3 4 5 6

2:39
G|------------------------------------------------------------------------------------------------|
D|------------------------------------------------------------------------------------------------|
A|-------------------------------------------------1---1-1-----1---1-1----------------------------|
D|-6---6-6-----6---6-6-----2---2-2-----2---2-2-----------------------------0---0-0-----0---0-0----|
   1 2 3 4 5 6 1 2 3 4 5 6 1 2 3 4 5 6 1 2 3 4 5 6 1 2 3 4 5 6 1 2 3 4 5 6 1 2 3 4 5 6 1 2 3 4 5 6

G|------------------------------------------------------------------------------------------------|
D|------------------------------------------------------------------------------------------------|
A|-------------------------3---3-3-----3---3-3----------------------------------------------------|
D|-2---2-2-----2---2-2-----------------------------6---6-7-----6---6-7-----6---6-7-6-4-7---6-7----|
   1 2 3 4 5 6 1 2 3 4 5 6 1 2 3 4 5 6 1 2 3 4 5 6 1 2 3 4 5 6 1 2 3 4 5 6 1 2 3 4 5 6 1 2 3 4 5 6

G|------------------------------------------------------------------------------------------------|
D|------------------------------------------------------------------------------------------------|
A|-------------------------------------------------1---1-1-----1---1-1-----5---5-5-----5---5-5----|
D|-6---6-6-----6---6-6-----2---2-2-----2---2-2----------------------------------------------------|
   1 2 3 4 5 6 1 2 3 4 5 6 1 2 3 4 5 6 1 2 3 4 5 6 1 2 3 4 5 6 1 2 3 4 5 6 1 2 3 4 5 6 1 2 3 4 5 6

G|------------------------------------------------------------------------------------------------|
D|-------------4-4-4-2-2-2------------------------------------------------------------------------|
A|-------------------------3---3-3-----3---3-3----------------------------------------------------|
D|-2-2-2-4-4-4-------------------------------------6---6-7-----6---6-7-----6---6-7-6-4-7---6-7----|
   1 2 3 4 5 6 1 2 3 4 5 6 1 2 3 4 5 6 1 2 3 4 5 6 1 2 3 4 5 6 1 2 3 4 5 6 1 2 3 4 5 6 1 2 3 4 5 6

G|------------------------------------------------|
D|-6---6-7-----6---6-7-----6---6-7-6-4-7---6-7----|
A|------------------------------------------------|
D|------------------------------------------------|
  1 2 3 4 5 6 1 2 3 4 5 6 1 2 3 4 5 6 1 2 3 4 5 6

3:11
G|--------------------------------------------------------------------------------------------------|
D|o------------------------------------------------------------------------------------------------o|
A|o------------------------------------------------------------------------------------------------o|
D|--0-----------------------6-----------------------0-----------------------8-----------------------|
    1 2 3 4 5 6 1 2 3 4 5 6 1 2 3 4 5 6 1 2 3 4 5 6 1 2 3 4 5 6 1 2 3 4 5 6 1 2 3 4 5 6 1 2 3 4 5 6

G|--------------------------------------------------------------------------------------------------|
D|o------------------------------------------------------------------------------------------------o|
A|o------------------------------------------------------------------------------------------------o|
D|--0-----0-----0-----0-----6-----6-----6-----6-----0-----0-----0-----0-----8-----8-----8-----8-----|
    1 2 3 4 5 6 1 2 3 4 5 6 1 2 3 4 5 6 1 2 3 4 5 6 1 2 3 4 5 6 1 2 3 4 5 6 1 2 3 4 5 6 1 2 3 4 5 6

3:39
G|-------------------------------------------------|
D|-------------------------------------------------|
A|-------------------------------------------------|
D|-2-2-2-2-2-2-2-2-2-2-2-2-1-1-1-1-1-1-1-1-1-1-----|
   1 2 3 4 5 6 1 2 3 4 5 6 1 2 3 4 5 6 1 2 3 4 5 6 

G|---------------------------------------------------|-----|
D|o-------------------------------------------------o|-----|
A|o-------4-----------4-----------4---5-4-----4-----o|-----|
D|--0-0-0-------0-0-0-------0-0-0---0----------------|-0---|
    1 2 3 4 5 6 1 2 3 4 5 6 1 2 3 4 5 6 1 2 3 4 5 6

===============================================================================

Genesis

0:33
G|---------------------------------------------------------------------------------------------------|
D|o-------------------------------------------------------------------------------------------------o|
A|o-------------------------------------------------3-----------------------3-r---------------------o|
D|--0-----------------------0-r----------------------------------------------------------------------|
    1 2 3 4 5 6 1 2 3 4 5 6 1 2 3 4 5 6 1 2 3 4 5 6 1 2 3 4 5 6 1 2 3 4 5 6 1 2 3 4 5 6 1 2 3 4 5 6

G|-------------------------------------------------------------------------------------------------|
D|-------------------------------------------------12----------------------------------------------|
A|-5-----------------------5-r---------------------------------------------------------------------|
D|-------------------------------------------------------------------------------------------------|
   1 2 3 4 5 6 1 2 3 4 5 6 1 2 3 4 5 6 1 2 3 4 5 6 1 2 3 4 5 6 1 2 3 4 5 6 1 2 3 4 5 6 1 2 3 4 5 6

G|-------------------------------------------------------------------------------------------------|
D|-7-----7-----7-----7-----7-----7-----7-----7-----5-----------------------------------------------|
A|-------------------------------------------------------------------------------------------------|
D|-------------------------------------------------------------------------5-r---------------------|
   1 2 3 4 5 6 1 2 3 4 5 6 1 2 3 4 5 6 1 2 3 4 5 6 1 2 3 4 5 6 1 2 3 4 5 6 1 2 3 4 5 6 1 2 3 4 5 6

G|-------------------------------------------------------------------5-5-5-7-7-7-7-7-7-9-9-9-9-\---|
D|-7-----7-----7-----7-----7-----7-----7-----7-----5-5-5-5-5-5-7-7-7-------------------------------|
A|-------------------------------------------------------------------------------------------------|
D|-------------------------------------------------------------------------------------------------|
   1 2 3 4 5 6 1 2 3 4 5 6 1 2 3 4 5 6 1 2 3 4 5 6 1 2 3 4 5 6 1 2 3 4 5 6 1 2 3 4 5 6 1 2 3 4 5 6

1:09 / 1:44 / 2:20
G|o|--------7---7-------7---7-------7---7-------7---7-------5---5-------5---5-------5---5-------5---5--|
D|-|o-------------------------------------------------------------------------------------------------o|
A|-|o-5---5-------5---5-------5---5-------5---5-------3---3-------3---3-------3---3-------3---3-------o|
D|o|---------------------------------------------------------------------------------------------------|
      1 2 3 4 5 6 1 2 3 4 5 6 1 2 3 4 5 6 1 2 3 4 5 6 1 2 3 4 5 6 1 2 3 4 5 6 1 2 3 4 5 6 1 2 3 4 5 6

G|-------7---7-------7---7-------7---7-------7---7-------------------------------------------------|
D|-------------------------------------------------------8---8-------8---8-------8---8-------8---8-|
A|-5---5-------5---5-------5---5-------5---5-------------------------------------------------------|
D|-------------------------------------------------8---8-------8---8-------8---8-------8---8-------|
   1 2 3 4 5 6 1 2 3 4 5 6 1 2 3 4 5 6 1 2 3 4 5 6 1 2 3 4 5 6 1 2 3 4 5 6 1 2 3 4 5 6 1 2 3 4 5 6

G|-------------------------------------------------------------------------------------------------|
D|-------7---7-------7---7-------7---7-------7---7-------5---5-------5---5-------5---5-------5---5-|
A|-------------------------------------------------------------------------------------------------|
D|-7---7-------7---7-------7---7-------7---7-------5---5-------5---5-------5---5-------5---5-------|
   1 2 3 4 5 6 1 2 3 4 5 6 1 2 3 4 5 6 1 2 3 4 5 6 1 2 3 4 5 6 1 2 3 4 5 6 1 2 3 4 5 6 1 2 3 4 5 6

G|-------------------------------------------------------------------------------5---5-------5---5-|o|
D|-------7---7-------7---7-------7---7-------7---7-------5---5-------5---5-------------------------|-|
A|-------------------------------------------------------------------------3---3-------3---3-------|-|x3
D|-7---7-------7---7-------7---7-------7---7-------5---5-------5---5-------------------------------|o|
   1 2 3 4 5 6 1 2 3 4 5 6 1 2 3 4 5 6 1 2 3 4 5 6 1 2 3 4 5 6 1 2 3 4 5 6 1 2 3 4 5 6 1 2 3 4 5 6

2:55
G|--------------------------------------------------------5---5-------5---5-------5---5-------5---5--|
D|o-------------------------------------------------------------------------------------------------o|
A|o-------5---5-------5---5-------5---5-------5---5-3---3-------3---3-------3---3-------3---3-------o|
D|--0---0-------0---0-------0---0-------0---0--------------------------------------------------------|
    1 2 3 4 5 6 1 2 3 4 5 6 1 2 3 4 5 6 1 2 3 4 5 6 1 2 3 4 5 6 1 2 3 4 5 6 1 2 3 4 5 6 1 2 3 4 5 6

G|-------------------------------------------------------------------------------------------------|---|
D|-------------------------------------------------------8---8-------8---8-------8---8-------8---8-|-7-|
A|-------5---5-------5---5-------5---5-------5---5-------------------------------------------------|---|
D|-0---0-------0---0-------0---0-------0---0-------8---8-------8---8-------8---8-------8---8-------|---|
   1 2 3 4 5 6 1 2 3 4 5 6 1 2 3 4 5 6 1 2 3 4 5 6 1 2 3 4 5 6 1 2 3 4 5 6 1 2 3 4 5 6 1 2 3 4 5 6
Tabbed by Dave Vucko

===============================================================================
comments
We did not receive enough feedback on this tab! Please rate:
print report bad tab
1 2 3 4 5
1 comment total.
0 reply
Teh D Bot wrote on February 14 2014, 08:08 pm

I don't know why my tab is getting cut off on Death Knell, on the update screen it all shows.

I want to post or [tab]
guest
You may want to rate the tab now too:
select rating
Please do not post tabs as comments. Select "correction" instead!