Oops, an error
Loading. Please wait.

Secular Haze Bass Tab

ver1
ver1

Whole song

Interactive

More versions @911Tabs.com
6,409 views 21 this week
no commentswrite comment
1 2 3 4 5
excellent!
x 4
Autoscroll
+/-
esc
set tempo
stop
Contributor
Hey! There's an official Ultimate Guitar app which is ideal
for learning songs when you're away from computer. Get the app
WARNING: You are trying to view
                                    content from Ultimate-Guitar.com
                                    in an unauthorized application,
                                    which is prohibited.

                                    Please use an official Ultimate
                                    Guitar Tabs application for iPhone,
                                    iPad or Android to access legitimate
                                    chords, guitar, bass, and drum tabs
                                    from Ultimate-Guitar.com database.

                                    Type "ultimate guitar tabs" in Apple
                                    App Store's or Android Market's
                                    search to find the application.
0:07
G|---------------------------------------------------------------------------------------------------|
D|o-------------------------------------------------------------------------------------------------o|
A|o-3---3---3---3-----------3---3---3---3-----------3---6---6---6---5---5---5---------------5---5---o|
D|------------------4---4-------------------6---6-------------------------------5---5---5------------|
    1   2   3   4   5   6   1   2   3   4   5   6   1   2   3   4   5   6   1   2   3   4   5   6 

G|---------------------------------------------------------------------------------------------------|
D|o-------------------------------------------------------------------------------------------------o|
A|o-----------------------------------------------------8---8---8---7---7---7---------------7---7---o|
D|--0-----------0---6---6---0-----------0---8---8---0---------------------------7---7---7------------|
    1   2   3   4   5   6   1   2   3   4   5   6   1   2   3   4   5   6   1   2   3   4   5   6 

0:35
G|---------------------------------------------------------------------------------------------------|
D|o-------------------------------------------------------------------------------------------------o|
A|o---------------------6---------------3---2---1-----------------------6---------------3---2---1---o|
D|--2---2---2---------------2-2-2-2-2-2-------------2---2---2---------------2-2-2-2-2-2--------------|
    1   2   3   4   5   6   1   2   3   4   5   6   1   2   3   4   5   6   1   2   3   4   5   6 

0:50
G|-------------------------------------------------------------------------------------------------|
D|-------------------------------------------------------------------------------------------------|
A|-----------------------------------------7-\-----------------------------------------------------|
D|-------------------------------------7-------3-/-7-----------6---5---3-/-7-----------7---3---3-/-|
   1   2   3   4   5   6   1   2   3   4   5   6   1   2   3   4   5   6   1   2   3   4   5   6 

G|---------------------------------------------------------------------------------------------------|
D|o-------------------------------------------------------------------------------------------------o|
A|o-------------------------------------------------------------------------------------------------o|x4
D|--7-----------6---5---3-/-7-----------7---3---3-/-7-----------6---5---3-/-7-----------7---3---3-/--|
    1   2   3   4   5   6   1   2   3   4   5   6   1   2   3   4   5   6   1   2   3   4   5   6 

1:26
G|-------------------------------------------------------------------------------------------------|
D|-------------------------------------------------------------------------------------------------|
A|---------------------------------------------8---7---7---7---------------------------------------|
D|-7-----------6---5---3-/-7-----------6---5-------------------------------8-----------6-----------|
   1   2   3   4   5   6   1   2   3   4   5   6   1   2   3   4   5   6   1   2   3   4   5   6 


1:33
G|-------------------------------------------------------------------------------------------------|
D|---------------------------------------------8-----------------------------------------------8---|
A|-3-------3---------------3-------3h5-----8-------3-------3---------------3-------3h5-----8-------|
D|-----5-------6-------5-------5-------8---------------5-------6-------5-------5-------8-----------|
   1   2   3   4   5   6   1   2   3   4   5   6   1   2   3   4   5   6   1   2   3   4   5   6 

1:40
G|-----------------------------------------------------12----------12----------12----------12------|
D|-8---10--6---6---8---8---8---10--10--10--12--12----------12----------12----------12----------12--|
A|-------------------------------------------------10----------10----------10----------10----------|
D|-------------------------------------------------------------------------------------------------|
   1   2   3   4   5   6   1   2   3   4   5   6   1   2   3   4   5   6   1   2   3   4   5   6 

1:48
G|-------------------------------------------------------------------------------------------------|
D|-------------------------------------8-------8-----------------------------------------------8---|
A|-3-------3---------------3-------3h5-----8-------3-------3---------------3-------3h5-----8-------|
D|-----5-------6-------5-------5-----------------------5-------6-------5-------5-------8-----------|
   1   2   3   4   5   6   1   2   3   4   5   6   1   2   3   4   5   6   1   2   3   4   5   6 


G|-------------------------------------------------------------------------------------------------|
D|-8---10--10--10--12--12--12--13--13--13--15--15--12--12--12--------------------------------------|
A|-------------------------------------------------------------------------4-----------2-----------|
D|-------------------------------------------------------------------------------------------------|
   1   2   3   4   5   6   1   2   3   4   5   6   1   2   3   4   5   6   1   2   3   4   5   6 

G|-------------------------------------------------------------------------------------------------|
D|-------------------------------------------------------------------------------------------------|
A|-3-----------------------3---3---3---3-----------3---3---3---3-----------3---6---6---6---5---5---|
D|-----------------------------------------4---4-------------------6---6---------------------------|
   1   2   3   4   5   6   1   2   3   4   5   6   1   2   3   4   5   6   1   2   3   4   5   6 

G|-------------------------------------|
D|-------------------------------------|
A|-5-----------------------------------|
D|-----5---5---------------------------|
   1   2   3   4   5   6   1   2   3  

2:12
G|---------------------------------------------------|
D|o-------------------------------------------------o|
A|o-------------------------------------------------o|x7
D|--7-----------6---5---3-/-7-----------7---3---3-/--|
    1   2   3   4   5   6   1   2   3   4   5   6  

G|-------------------------------------------------------------------------------------------------|
D|-------------------------------------------------------------------------------------------------|
A|---------------------------------------------8---7---7---7---------------------------------------|
D|-7-----------6---5---3-/-7-----------6---5-------------------------------8-----------6-----------|
   1   2   3   4   5   6   1   2   3   4   5   6   1   2   3   4   5   6   1   2   3   4   5   6 

2:44
G|-------------------------------------------------------------------------------------------------|
D|---------------------------------------------8-----------------------------------------------8---|
A|-3-------3---------------3-------3h5-----8-------3-------3---------------3-------3h5-----8-------|
D|-----5-------6-------5-------5-------8---------------5-------6-------5-------5-------8-----------|
   1   2   3   4   5   6   1   2   3   4   5   6   1   2   3   4   5   6   1   2   3   4   5   6 

G|-----------------------------------------------------12----------12----------12----------12------|
D|-8---10--6---6---8---8---8---10--10--10--12--12----------12----------12----------12----------12--|
A|-------------------------------------------------10----------10----------10----------10----------|
D|-------------------------------------------------------------------------------------------------|
   1   2   3   4   5   6   1   2   3   4   5   6   1   2   3   4   5   6   1   2   3   4   5   6 

G|-------------------------------------------------------------------------------------------------|
D|---------------------------------------------8-----------------------------------------------8---|
A|-3-------3---------------3-------3h5-----8-------3-------3---------------3-------3h5-----8-------|
D|-----5-------6-------5-------5-------8---------------5-------6-------5-------5-------8-----------|
   1   2   3   4   5   6   1   2   3   4   5   6   1   2   3   4   5   6   1   2   3   4   5   6 

G|-------------------------------------------------------------------------------------------------|
D|-8---10--10--10--12--12--12--13--13--13--15--15--12--12--12--------------------------------------|
A|-------------------------------------------------------------------------4-----------2-----------|
D|-------------------------------------------------------------------------------------------------|
   1   2   3   4   5   6   1   2   3   4   5   6   1   2   3   4   5   6   1   2   3   4   5   6 

G|-------------------------|
D|-------------------------|
A|-3-----------------------|
D|-------------------------|
   1   2   3   4   5   6 

3:15
G|---------------------------------------------------------------------------------------------------|
D|o-------------------------------------------------------------------------------------------------o|
A|o-----------------------------------------------------8---8---8---7---7---7---------------7---7---o|
D|--0-----------0---6---6---0-----------0---8---8---0---------------------------7---7---7------------|
    1   2   3   4   5   6   1   2   3   4   5   6   1   2   3   4   5   6   1   2   3   4   5   6 

G|---------------------------------------------------------------------------------------------------|
D|o-------------------------------------------------------------------------------------------------o|
A|o---------------------6---------------3---2---1-----------------------6---------------3---2---1---o|
D|--2---2---2---------------2-2-2-2-2-2-------------2---2---2---------------2-2-2-2-2-2--------------|
    1   2   3   4   5   6   1   2   3   4   5   6   1   2   3   4   5   6   1   2   3   4   5   6 

3:43
G|-------------------------------------------------------------------------------------------------|
D|-------------------------------------------------------------------------------------------------|
A|-------------------------------------------------------------------------------------------------|
D|-------------------------------------7-------3-/-7-----------6---5---3-/-7-----------7---3---3-/-|
   1   2   3   4   5   6   1   2   3   4   5   6   1   2   3   4   5   6   1   2   3   4   5   6 

G|---------------------------------------------------|
D|o-------------------------------------------------o|
A|o-------------------------------------------------o|x6
D|--7-----------6---5---3-/-7-----------7---3---3-/--|
    1   2   3   4   5   6   1   2   3   4   5   6  

G|-------------------------------------------------------------------------------------------------|
D|-------------------------------------------------------------------------------------------------|
A|---------------------------------------------8---7---7---7---------------------------------------|
D|-7-----------6---5---3-/-7-----------6---5-------------------------------8-----------6-----------|
   1   2   3   4   5   6   1   2   3   4   5   6   1   2   3   4   5   6   1   2   3   4   5   6 

4:19
G|-------------------------------------------------------------------------------------------------|
D|---------------------------------------------8-----------------------------------------------8---|
A|-3-------3---------------3-------3h5-----8-------3-------3---------------3-------3h5-----8-------|
D|-----5-------6-------5-------5-------8---------------5-------6-------5-------5-------8-----------|
   1   2   3   4   5   6   1   2   3   4   5   6   1   2   3   4   5   6   1   2   3   4   5   6 

G|-------------------------------------------------|
D|-8---10--6---6---8---8---8---10--10--10--12--12--|
A|-------------------------------------------------|
D|-------------------------------------------------|
   1   2   3   4   5   6   1   2   3   4   5   6   

G|-------------------------------------------------------------------------------------------------|
D|---------------------------------------------8-----------------------------------------------8---|
A|-3-------3---------------3-------3h5-----8-------3-------3---------------3-------3h5-----8-------|
D|-----5-------6-------5-------5-------8---------------5-------6-------5-------5-------8-----------|
   1   2   3   4   5   6   1   2   3   4   5   6   1   2   3   4   5   6   1   2   3   4   5   6 

G|-------------------------------------------------|
D|-8---10--10--10--12--12--12--13--13--13--15--15--|
A|-------------------------------------------------|
D|-------------------------------------------------|
   1   2   3   4   5   6   1   2   3   4   5   6   

4:41
G|--------------------------------------------------------------------------------------------------|
D|o-------------------------------------------------------------------------------------------------|
A|o-------------0---1---0---------------------------3---5---3-------------------------------0---1---|
D|--0---2---3---------------0---0---0---0---2---3---------------5-----------------------3-----------|
    1   2   3   4   5   6   1   2   3   4   5   6   1   2   3   4   5   6   1   2   3   4   5   6 

G|--------------------------|-----------------------------------------------------------------------|
D|-------------------------o|-----------------------------------------------------------------------|
A|-3---3---3---3---3---3---o|-0-0-0---0-------------------------------------------------------------|
D|--------------------------|-------------------------3-----------1-----------0---------------------|
   1   2   3   4   5   6      1   2   3   4   5   6   1   2   3   4   5   6   1   2   3   4   5   6 

Tabbed by Dave Vucko
comments
print report bad tab
I want to post or [tab]
guest
You may want to rate the tab now too:
select rating
Please do not post tabs as comments. Select "correction" instead!