Oops, an error
Loading. Please wait.

Cult Of Decay Tab

553 views 6 this week
no commentswrite comment
1 2 3 4 5
please rate
Autoscroll
+/-
esc
set tempo
stop
Contributor
Hey! There's an official Ultimate Guitar app which is ideal
for learning songs when you're away from computer. Get the app
WARNING: You are trying to view
                                    content from Ultimate-Guitar.com
                                    in an unauthorized application,
                                    which is prohibited.

                                    Please use an official Ultimate
                                    Guitar Tabs application for iPhone,
                                    iPad or Android to access legitimate
                                    chords, guitar, bass, and drum tabs
                                    from Ultimate-Guitar.com database.

                                    Type "ultimate guitar tabs" in Apple
                                    App Store's or Android Market's
                                    search to find the application.
-------------------------------------------------------------------------------
                             CULT OF DECAY - Ghost Brigade
-------------------------------------------------------------------------------
Tabbed by: Alex Turner
Email: leopard.rules@gmail.com

Tuning: Drop C

All the clean parts of the song are palm muted, the rest is indicated on the tab.
The timing isn't perfect but you can listen to the song to get it perfect. Have fun :)



d|-------------------------8--(8)-------------------|
A|--------------------------------------------------|
F|-------9--(9)-10--9--10---------9--(9)-10--9--10--|
C|--------------------------------------------------|===
G|-0--(0)-------------------------------------------|   |
C|--------------------------------------------------|   |
                                                        |-Intro x2
d|-------------------------8--(8)---------------|       |
A|----------------------------------------------|       |
F|-------9--(9)-10--9--10---------9--(9)-10--9--|=======
C|----------------------------------------------|
G|-0--(0)---------------------------------------|
C|----------------------------------------------|


d|-------------------------8--(8)-------------------|
A|--------------------------------------------------|
F|-------9--(9)-10--9--10---------9--(9)-10--9--10--|
C|--------------------------------------------------|
G|-0--(0)-------------------------------------------|
C|--------------------------------------------------|

d|-------------------------8--(8)---------------|       
A|----------------------------------------------|       
F|-------9--(9)-10--9--10---------9--(9)-10--9--|
C|----------------------------------------------|
G|-0--(0)---------------------------------------|
C|----------------------------------------------|

d|-------------------------8--(8)-------------------|
A|--------------------------------------------------|
F|-------9--(9)-10--9--10---------9--(9)-10--9--10--|
C|--------------------------------------------------|
G|-0--(0)-------------------------------------------|
C|--------------------------------------------------|

d|-------------------------8--(8)---------------|       
A|----------------------------------------------|       
F|-------9--(9)-10--9--10---------9--(9)-10--9--|
C|----------------------------------------------|
G|-0--(0)---------------------------------------|
C|----------------------------------------------|


d|-------------------------8--(8)---------------|
A|----------------------------------------------|
F|-------9--(9)-10--9--10---------9--(9)-10--9--|
C|-0--(0)---------------------------------------|
G|----------------------------------------------|
C|----------------------------------------------|

d|-------------------------8--(8)-------------------|       
A|--------------------------------------------------|       
F|-------9--(9)-10--9--10---------9--(9)-10--9--10--|
C|--------------------------------------------------|
G|-8--(8)-------------------------------------------|
C|--------------------------------------------------|

d|-------------------------8--(8)-------------------|
A|--------------------------------------------------|
F|-------9--(9)-10--9--10---------9--(9)-10--9--10--|
C|--------------------------------------------------|
G|-0--(0)-------------------------------------------|
C|--------------------------------------------------|

d|-------------------------8--(8)---------------|       
A|----------------------------------------------|       
F|-------9--(9)-10--9--10---------9--(9)-10--9--|
C|----------------------------------------------|
G|-0--(0)---------------------------------------|
C|----------------------------------------------|

= = = = = = = = = = = = = = = = = = = = = = = = = =

d|-------------------------8--(8)-------------------|
A|--------------------------------------------------|
F|-9-----9--(9)-10--9--10---------9--(9)-10--9--10--|
C|--------------------------------------------------|
G|----(0)-------------------------------------------|
C|--------------------------------------------------|

d|-------------------------8--(8)---------------|       
A|----------------------------------------------|       
F|-------9--(9)-10--9--10---------9--(9)-10--9--|
C|----------------------------------------------|
G|-0--(0)---------------------------------------|
C|----------------------------------------------|

d|-------------------------8--(8)-------------------|
A|--------------------------------------------------|
F|-------9--(9)-10--9--10---------9--(9)-10--9--10--|
C|--------------------------------------------------|
G|-0--(0)-------------------------------------------|
C|--------------------------------------------------|

d|-------------------------8--(8)---------------|       
A|----------------------------------------------|       
F|-------9--(9)-10--9--10---------9--(9)-10--9--|
C|----------------------------------------------|
G|-0--(0)---------------------------------------|
C|----------------------------------------------|

d|-------------------------8--(8)---------------|
A|----------------------------------------------|
F|-------9--(9)-10--9--10---------9--(9)-10--9--|
C|-0--(0)---------------------------------------|
G|----------------------------------------------|
C|----------------------------------------------|

d|-------------------------8--(8)-------------------|       
A|--------------------------------------------------|       
F|-------9--(9)-10--9--10---------9--(9)-10--9--10--|
C|--------------------------------------------------|
G|-8--(8)-------------------------------------------|
C|--------------------------------------------------|

d|-------------------------8--(8)-------------------|
A|--------------------------------------------------|
F|-------9--(9)-10--9--10---------9--(9)-10--9--10--|
C|--------------------------------------------------|
G|-0--(0)-------------------------------------------|
C|--------------------------------------------------|

d|-------------------------8--(8)---------------|       
A|----------------------------------------------|       
F|-------9--(9)-10--9--10---------9--(9)-10--9--|
C|----------------------------------------------|
G|-0--(0)---------------------------------------|
C|----------------------------------------------|

d|-------------------------8--(8)---------------|
A|----------------------------------------------|
F|-------9--(9)-10--9--10---------9--(9)-10--9--|
C|-0--(0)---------------------------------------|
G|----------------------------------------------|
C|----------------------------------------------|

d|-------------------------8--(8)-------------------|       
A|--------------------------------------------------|       
F|-------9--(9)-10--9--10---------9--(9)-10--9--10--|
C|--------------------------------------------------|
G|-8--(8)-------------------------------------------|
C|--------------------------------------------------|

. . . . . . . . . . . . . . . . . . . . .
d|-------------------------8--(8)---------------|
A|----------------------------------------------|
F|-------9--(9)-10--9--10---------9--(9)-10--9--|
C|-0--(0)---------------------------------------|
G|----------------------------------------------|
C|----------------------------------------------|

d|-------------------------8--(8)-------------------|       
A|--------------------------------------------------|       
F|-------9--(9)-10--9--10---------9--(9)-10--9--10--|
C|--------------------------------------------------|
G|-8--(8)-------------------------------------------|
C|--------------------------------------------------|



======Chorus======

 | - Guitar 1:
d|-----------------------------------------------------------------------------------|
A|-----------------------------------------------------------------------------------|
F|-----------------------------------------------------------------------------------|
C|-7------7------7------7------7------7------5------5------5------5------5------5----|
G|-7------7------7------7------7------7------5------5------5------5------5------5----|
C|-7------7------7------7------7------7------5------5------5------5------5------5----|
 | - Guitar 2:
d|-----------------------------------------------------------------------------------|       
A|-----------------------------------------------------------------------------------|       
F|-----------------------------7/9----7------9------9------9------9------9h10p9-7----|
C|-7------7------7------7------------------------------------------------------------|
G|-----------------------------------------------------------------------------------|
C|-----------------------------------------------------------------------------------|


 | - Guitar 1:
d|-----------------------------------------------------------------------------------|
A|-----------------------------------------------------------------------------------|
F|-----------------------------------------------------------------------------------|
C|-0------0------0------0------0------0------3------3------3------5------3------5----|
G|-0------0------0------0------0------0------3------3------3------5------3------5----|
C|-0------0------0------0------0------0------3------3------3------5------3------5----|
 | - Guitar:2
d|-----------------------------------------------------------------------------------|       
A|-----------------------------------------------------------------------8------10---|       
F|-----------------------------9h10p9-7------9b------------9------9------------------|
C|-7------7------7------7------------------------------------------------------------|
G|-----------------------------------------------------------------------------------|
C|-----------------------------------------------------------------------------------|


 | - Guitar 1:
d|-----------------------------------------------------------------------------------|
A|-----------------------------------------------------------------------------------|
F|-----------------------------------------------------------------------------------|
C|-7------7------7------7------7------7------5------5------5------5------5------5----|
G|-7------7------7------7------7------7------5------5------5------5------5------5----|
C|-7------7------7------7------7------7------5------5------5------5------5------5----|
 | - Guitar 2:
d|-----------------------------------------------------------------------------------|       
A|-----------------------------------------------------------------------------------|       
F|-9------9------9------9------9h10p9--------7b------------7------10--9--7-----------|
C|------------------------------------10----------------------------------------10---|
G|-----------------------------------------------------------------------------------|
C|-----------------------------------------------------------------------------------|


 | - Guitar 1:                                      x  x   x  x
d|-----------------------------------------------------------------------------------|
A|-----------------------------------------------------------------------------------|
F|-----------------------------------------------------------------------------------|
C|-0------0------0------0------0------0------3------3--3---3--3---5------3------5----|
G|-0------0------0------0------0------0------3------3--3---3--3---5------3------5----|
C|-0------0------0------0------0------0------3------3--3---3--3---5------3------5----|
 | - Guitar:2
d|-----------------------------------------------------------------------------------|       
A|-----------------------------------------------------------------------------------|
F|------------------------------------------------------------------------------7----|
C|-------------------------------------------10-----10-----10-----7h9----10----------|
G|-8-------------8------8------7-----8-----------------------------------------------|
C|-----------------------------------------------------------------------------------|


 | - Guitar 1:
d|-----------------------------------------------------------------------------------|
A|-----------------------------------------------------------------------------------|
F|-----------------------------------------------------------------------------------|
C|-7------7------7------7------7------7------5------5------5------5------5------5----|
G|-7------7------7------7------7------7------5------5------5------5------5------5----|
C|-7------7------7------7------7------7------5------5------5------5------5------5----|
 | - Guitar 2:
d|-----------------------------------------------------------------------------------|       
A|-----------------------------------------------------------------------------------|       
F|-----------------------------7/9----7------9------9------9------9------9h10p9-7----|
C|-7------7------7------7------------------------------------------------------------|
G|-----------------------------------------------------------------------------------|
C|-----------------------------------------------------------------------------------|


 | - Guitar 1:
d|-----------------------------------------------------------------------------------|
A|-----------------------------------------------------------------------------------|
F|-----------------------------------------------------------------------------------|
C|-0------0------0------0------0------0------3------2------3------5------3------5----|
G|-0------0------0------0------0------0------3------2------3------5------3------5----|
C|-0------0------0------0------0------0------3------2------3------5------3------5----|
 | - Guitar:2
d|-----------------------------------------------------------------------------------|       
A|-----------------------------------------------------------------------8------10---|       
F|-----------------------------9h10p9-7------9b------------9------9------------------|
C|-7------7------7------7------------------------------------------------------------|
G|-----------------------------------------------------------------------------------|
C|-----------------------------------------------------------------------------------|


 | - Guitar 1:
d|-----------------------------------------------------------------------------------|
A|-----------------------------------------------------------------------------------|
F|-----------------------------------------------------------------------------------|
C|-7------7------7------7------7------7------10-----10-----10-----10-----10-----10---|
G|-7------7------7------7------7------7------10-----10-----10-----10-----10-----10---|
C|-7------7------7------7------7------7------10-----10-----10-----10-----10-----10---|
 | - Guitar 2:
d|-----------------------------------------------------------------------------------|       
A|-----------------------------------------------------------------------------------|       
F|-9------9------9------9------9h10p9--------7b------------7------10--9--7-----------|
C|------------------------------------10----------------------------------------10---|
G|-----------------------------------------------------------------------------------|
C|-----------------------------------------------------------------------------------|


 | - Guitar 1:                 x  x   x  x                               x  x   x  x
d|-----------------------------------------------------------------------------------|
A|-----------------------------------------------------------------------------------|
F|-----------------------------------------------------------------------------------|
C|-0-------------0------0--0---0--0---0--0---3-------------3------3--3---3--3---5--5-|
G|-0-------------0------0--0---0--0---0--0---3-------------3------3--3---3--3---5--5-|
C|-0-------------0------0--0---0--0---0--0---3-------------3------3--3---3--3---5--5-|
 | - Guitar:2
d|-----------------------------------------------------------------------------------|       
A|-----------------------------------------------------------------------------------|
F|------------------------------------------------------------------------------7----|
C|-------------------------------------------10-----10-----10-----7h9----10----------|
G|-8-------------8------8------7-----8-----------------------------------------------|
C|-----------------------------------------------------------------------------------|


d|-------------------------8--(8)-------------------|
A|--------------------------------------------------|
F|-------9--(9)-10--9--10---------9--(9)-10--9--10--|
C|--------------------------------------------------|
G|-0--(0)-------------------------------------------|
C|--------------------------------------------------|

d|-------------------------8--(8)---------------|       
A|----------------------------------------------|       
F|-------9--(9)-10--9--10---------9--(9)-10--9--|
C|----------------------------------------------|
G|-0--(0)---------------------------------------|
C|----------------------------------------------|

d|-------------------------8--(8)-------------------|
A|--------------------------------------------------|
F|-9-----9--(9)-10--9--10---------9--(9)-10--9--10--|
C|--------------------------------------------------|
G|--------------------------------------------------|
C|--------------------------------------------------|

d|-------------------------8--(8)---------------|       
A|----------------------------------------------|       
F|-------9--(9)-10--9--10---------9--(9)-10--9--|
C|----------------------------------------------|
G|-0--(0)---------------------------------------|
C|----------------------------------------------|

d|-------------------------8--(8)-------------------|
A|--------------------------------------------------|
F|-9-----9--(9)-10--9--10---------9--(9)-10--9--10--|
C|--------------------------------------------------|
G|--------------------------------------------------|
C|--------------------------------------------------|

d|-------------------------8--(8)---------------|       
A|----------------------------------------------|       
F|-------9--(9)-10--9--10---------9--(9)-10--9--|
C|----------------------------------------------|
G|-0--(0)---------------------------------------|
C|----------------------------------------------|

d|-------------------------8--(8)-------------------|
A|--------------------------------------------------|
F|-------9--(9)-10--9--10---------9--(9)-10--9--10--|
C|--------------------------------------------------|
G|-0--(0)-------------------------------------------|
C|--------------------------------------------------|

d|-------------------------8--(8)---------------|       
A|----------------------------------------------|       
F|-------9--(9)-10--9--10---------9--(9)-10--9--|
C|----------------------------------------------|
G|-0--(0)---------------------------------------|
C|----------------------------------------------|

d|-------------------------8--(8)---------------|
A|----------------------------------------------|
F|-------9--(9)-10--9--10---------9--(9)-10--9--|
C|-0--(0)---------------------------------------|
G|----------------------------------------------|
C|----------------------------------------------|

d|-------------------------8--(8)-------------------|       
A|--------------------------------------------------|       
F|-------9--(9)-10--9--10---------9--(9)-10--9--10--|
C|--------------------------------------------------|
G|-8--(8)-------------------------------------------|
C|--------------------------------------------------|

d|-------------------------8--(8)-------------------|
A|--------------------------------------------------|
F|-------9--(9)-10--9--10---------9--(9)-10--9--10--|
C|--------------------------------------------------|
G|-0--(0)-------------------------------------------|
C|--------------------------------------------------|

d|-------------------------8--(8)---------------|       
A|----------------------------------------------|       
F|-------9--(9)-10--9--10---------9--(9)-10--9--|
C|----------------------------------------------|
G|-0--(0)---------------------------------------|
C|----------------------------------------------|

d|-------------------------8--(8)---------------|
A|----------------------------------------------|
F|-------9--(9)-10--9--10---------9--(9)-10--9--|
C|-0--(0)---------------------------------------|
G|----------------------------------------------|
C|----------------------------------------------|

d|-------------------------8--(8)-------------------|       
A|--------------------------------------------------|       
F|-------9--(9)-10--9--10---------9--(9)-10--9--10--|
C|--------------------------------------------------|
G|-8--(8)-------------------------------------------|
C|--------------------------------------------------|

d|-------------------------8--(8)---------------|
A|----------------------------------------------|
F|-------9--(9)-10--9--10---------9--(9)-10--9--|
C|-0--(0)---------------------------------------|
G|----------------------------------------------|
C|----------------------------------------------|

d|-------------------------8--(8)-------------------|       
A|--------------------------------------------------|       
F|-------9--(9)-10--9--10---------9--(9)-10--9--10--|
C|--------------------------------------------------|
G|-8--(8)-------------------------------------------|
C|--------------------------------------------------|

 - Then play the chorus again, and then. . .

>Distorted<

       x   x   x         x           x   x   x   x          x   x   x   x           x   x   x   x
d|------------------------------------------------------------------------------------------|
A|------------------------------------------------------------------------------------------|
F|------------------------------------------------------------------------------------------|
C|--------------------------------------------------------------------3---3-----------------|x3 then
G|--------------------------------------------5---5-----------------------------------------|
C|-0h2-2---2---2---2---2---2---0---0---2---2----------0---0---2---2-----------0---0---3---3-|

       x   x   x         x           x   x   x   x          x   x   x   x           x   x   x   x
d|------------------------------------------------------------------------------------------|
A|------------------------------------------------------------------------------------------|
F|------------------------------------------------------------------------------------------|
C|------------------------------------------------------------------------------------------|
G|--------------------------------------------5---5-------------------5---5-----------------|
C|-0h2-2---2---2---2---2---2---0---0---2---2----------0---0---2---2-----------0---0---3---3-|

       x   x   x         x           x   x   x   x          x   x   x   x           x   x   x   x
d|------------------------------------------------------------------------------------------|
A|------------------------------------------------------------------------------------------|
F|------------------------------------------------------------------------------------------|
C|--------------------------------------------------------------------3---3-----------------|x3 then
G|--------------------------------------------5---5-----------------------------------------|
C|-0h2-2---2---2---2---2---2---0---0---2---2----------0---0---2---2-----------0---0---3---3-|

       x   x   x         x           x   x   x   x          x   x   x   x           x   x   x   x
d|------------------------------------------------------------------------------------------|
A|------------------------------------------------------------------------------------------|
F|------------------------------------------------------------------------------------------|
C|------------------------------------------------------------------------------------------|
G|--------------------------------------------5---5-------------------5---5-----------------|
C|-0h2-2---2---2---2---2---2---0---0---2---2----------0---0---2---2-----------0---0---3---3-|

   x   x   x   x                x   x   x   x           x   x   x   x
d|--------------------------------------------------------------|
A|--------------------------------------------------------------|
F|--------------------------------------------------------------|
C|--------------------------------------------------------------|
G|----------------5---5-------------------5---5-----------------|
C|-0---0---2---2----------0---0---2---2-----------0---0---3---3-|



d|-------------------------8--(8)-------------------|
A|--------------------------------------------------|
F|-------9--(9)-10--9--10---------9--(9)-10--9--10--|
C|--------------------------------------------------|
G|-0--(0)-------------------------------------------|
C|--------------------------------------------------|

d|-------------------------8--(8)---------------|       
A|----------------------------------------------|       
F|-------9--(9)-10--9--10---------9--(9)-10--9--|
C|----------------------------------------------|
G|-0--(0)---------------------------------------|
C|----------------------------------------------|

d|-------------------------8--(8)-------------------|
A|--------------------------------------------------|
F|-------9--(9)-10--9--10---------9--(9)-10--9--10--|
C|--------------------------------------------------|
G|-0--(0)-------------------------------------------|
C|--------------------------------------------------|

d|-------------------------8--(8)---------------|       
A|----------------------------------------------|       
F|-------9--(9)-10--9--10---------9--(9)-10--9--|
C|----------------------------------------------|
G|-0--(0)---------------------------------------|
C|----------------------------------------------|



Then play the chorus again x2, repeat the end bit of the chorus and that's it!
E-mail me if you notice anything that needs correction :)

************************************

| /   slide up
| h   hammer-on
| p   pull-off
| x   Mute note
| b   Bend

************************************
comments
We did not receive enough feedback on this tab! Please rate:
print report bad tab
1 2 3 4 5
I want to post or [tab]
guest
You may want to rate the tab now too:
select rating
Please do not post tabs as comments. Select "correction" instead!