Oops, an error
Loading. Please wait.

In The Woods Tab

ver1
ver1

Whole song

More versions @911Tabs.com
4,541 views 27 this week
no commentswrite comment
1 2 3 4 5
accurate
x 2
Autoscroll
+/-
esc
set tempo
stop
WARNING: You are trying to view
                                    content from Ultimate-Guitar.com
                                    in an unauthorized application,
                                    which is prohibited.

                                    Please use an official Ultimate
                                    Guitar Tabs application for iPhone,
                                    iPad or Android to access legitimate
                                    chords, guitar, bass, and drum tabs
                                    from Ultimate-Guitar.com database.

                                    Type "ultimate guitar tabs" in Apple
                                    App Store's or Android Market's
                                    search to find the application.
-------------------------------------------------------------------------------
                             In The Woods - Ghost Brigade
-------------------------------------------------------------------------------
Tabbed by: Korey Thind


************************************

| /   slide up
| \   slide down
| h   hammer-on
| p   pull-off
| ~   vibrato
| +   harmonic
| x   Mute note
| b   Bend
| pb  Pre-bend
| br  Bend release
| pbr Pre-bend release
| brb Bend release bend

************************************
____________________________________
Note Values:
W - Whole Note
H - Half Note
Q - Quarter Note
E - Eighth Note
S - Sixteenth Note

*Eighth notes if not specified*
____________________________________

Tuning: EADGBe (Standard)
Tempo: Q = 92
4/4

 Guitar 1       Q          Q          Q              Q         Q       Q
e||-------0----------------3----------1------------------------0-------0--------||
B||o----------1-3----------3----------3--------5-----3---------3-------3-------o||
G||-----2-----------2---2-(2)------2-(2)-----------5-----------5-------5--------||
D||---0-----0---------0---(0)----0---(0)-----7-----------7---7-------7----------||
A||o---------------------------------------3-----3---------0-------0-----------o||
E||-----------------------------------------------------------------------------||



               Q          Q          Q              Q         Q       Q        
e|-------0----------------3----------1------------------------0-------0-------|
B|-----------1-3----------3----------3--------5-----3---------3-------3-------|
G|-----2-----------2---2-(2)------2-(2)-----------5-----------5-------5-------|
D|---0-----0---------0---(0)----0---(0)-----7-----------7---7-------7---------|
A|----------------------------------------3-----3---------0-------0-----------|
E|----------------------------------------------------------------------------|
 |
 |Guitar 2     Q         Q          Q               Q
e|------------------/8-5-5----------------------------------------------------|
B|-----6-5---------------------/8-6-6-------6-5-------------------------------|
G|--/7------/5-7-------------------------/7------/5-7---7-/9-7-9-7-9-7-9-7----|
D|---------7-------7----------------------------7-----------------------------|
A|----------------------------------------------------------------------------|
E|----------------------------------------------------------------------------|



               Q          Q          Q              Q         Q       Q           
e|-------0----------------3----------1------------------------0-------0-------|
B|-----------1-3----------3----------3--------5-----3---------3-------3-------|
G|-----2-----------2---2-(2)------2-(2)-----------5-----------5-------5-------|
D|---0-----0---------0---(0)----0---(0)-----7-----------7---7-------7---------|
A|----------------------------------------3-----3---------0-------0-----------|
E|----------------------------------------------------------------------------|
 |
 |             Q         Q          Q               Q                 s s           
e|------------------/8-5-5----------------------------------------------------|
B|-----6-5---------------------/8-6-6-------6-5-------------------------------|
G|--/7------/5-7-------------------------/7------/5-7---7-/9-7-9-7-9-7-9h10p9-|
D|---------7-------7----------------------------7-----------------------------|
A|----------------------------------------------------------------------------|
E|----------------------------------------------------------------------------|




 Guitar 1       Q          Q          Q              Q         Q       Q                       
e||-------0----------------3----------1------------------------0-------0--------||x4
B||o----------1-3----------3----------3--------5-----3---------3-------3-------o||
G||-----2-----------2---2-(2)------2-(2)-----------5-----------5-------5--------||
D||---0-----0---------0---(0)----0---(0)-----7-----------7---7-------7----------||
A||o---------------------------------------3-----3---------0-------0-----------o||
E||-----------------------------------------------------------------------------||



            Q     S S     Q                                                    
e||-----5---------------8-8---5-5-5-5-5----||x5
B||o------8-----------6-------------------o||
G||--/7-----7---7-5h7----------------------||
D||----------------------------------------||
A||o--------------------------------------o||
E||----------------------------------------||
 |
 |
e||----------------------------------------||
B||o--------------------------------------o||
G||-----------can't make out---------------||
D||------------these chords----------------||
A||o--------------------------------------o||
E||----------------------------------------||



           Q     S S     Q   Q       s s                                        
e|-----5---------------8-8---10--5-5-5-5--|
B|-------8-----------6--------------------|
G|--/7-----7---7-5h7----------------------|
D|----------------------------------------|
A|----------------------------------------|
E|----------------------------------------|
 |
 |
e||----------------------------------------||
B||o--------------------------------------o||
G||-----------can't make out---------------||
D||------------these chords----------------||
A||o--------------------------------------o||
E||----------------------------------------||



           Q     S S     Q   Q     Q                                           
e|-----5---------------8-8---5---3-3------|
B|-------8-----------6--------------------|
G|--/7-----7---7-5h7----------------------|
D|----------------------------------------|
A|----------------------------------------|
E|----------------------------------------|
 |
 |
e||----------------------------------------||
B||o--------------------------------------o||
G||-----------can't make out---------------||
D||------------these chords----------------||
A||o--------------------------------------o||
E||----------------------------------------||




 Guitar 1      Q          Q          Q              Q         Q       Q                   
e|-------0----------------3----------1------------------------0-------0-------|
B|-----------1-3----------3----------3--------5-----3---------3-------3-------|
G|-----2-----------2---2-(2)------2-(2)-----------5-----------5-------5-------|
D|---0-----0---------0---(0)----0---(0)-----7-----------7---7-------7---------|
A|----------------------------------------3-----3---------0-------0-----------|
E|----------------------------------------------------------------------------|



               Q          Q          Q              Q         Q       Q           
e|-------0----------------3----------1------------------------0-------0-------|
B|-----------1-3----------3----------3--------5-----3---------3-------3-------|
G|-----2-----------2---2-(2)------2-(2)-----------5-----------5-------5-------|
D|---0-----0---------0---(0)----0---(0)-----7-----------7---7-------7---------|
A|----------------------------------------3-----3---------0-------0-----------|
E|----------------------------------------------------------------------------|
 |
 |             Q         Q          Q               Q                 s s           
e|------------------/8-5-5----------------------------------------------------|
B|-----6-5---------------------/8-6-6-------6-5-------------------------------|
G|--/7------/5-7-------------------------/7------/5-7---7-/9-7-9-7-9-7-9h10p9-|
D|---------7-------7----------------------------7-----------------------------|
A|----------------------------------------------------------------------------|
E|----------------------------------------------------------------------------|




 Guitar 1       Q          Q          Q              Q         Q       Q
e||-------0----------------3----------1------------------------0-------0--------||x4
B||o----------1-3----------3----------3--------5-----3---------3-------3-------o||
G||-----2-----------2---2-(2)------2-(2)-----------5-----------5-------5--------||
D||---0-----0---------0---(0)----0---(0)-----7-----------7---7-------7----------||
A||o---------------------------------------3-----3---------0-------0-----------o||
E||-----------------------------------------------------------------------------||



            Q     S S     Q                                                    
e||-----5---------------8-8---5-5-5-5-5----||x5
B||o------8-----------6-------------------o||
G||--/7-----7---7-5h7----------------------||
D||----------------------------------------||
A||o--------------------------------------o||
E||----------------------------------------||
 |
 |
e||----------------------------------------||
B||o--------------------------------------o||
G||-----------can't make out---------------||
D||------------these chords----------------||
A||o--------------------------------------o||
E||----------------------------------------||



           Q     S S     Q   Q       s s                                        
e|-----5---------------8-8---10--5-5-5-5--|
B|-------8-----------6--------------------|
G|--/7-----7---7-5h7----------------------|
D|----------------------------------------|
A|----------------------------------------|
E|----------------------------------------|
 |
 |
e||----------------------------------------||
B||o--------------------------------------o||
G||-----------can't make out---------------||
D||------------these chords----------------||
A||o--------------------------------------o||
E||----------------------------------------||



           Q     S S     Q   Q     Q                                           
e|-----5---------------8-8---5---3-3------|
B|-------8-----------6--------------------|
G|--/7-----7---7-5h7----------------------|
D|----------------------------------------|
A|----------------------------------------|
E|----------------------------------------|
 |
 |
e||----------------------------------------||
B||o--------------------------------------o||
G||-----------can't make out---------------||
D||------------these chords----------------||
A||o--------------------------------------o||
E||----------------------------------------||



               Q          Q          Q              Q         Q       Q        
e|-------0----------------3----------1------------------------0-------0-------|
B|-----------1-3----------3----------3--------5-----3---------3-------3-------|
G|-----2-----------2---2-(2)------2-(2)-----------5-----------5-------5-------|
D|---0-----0---------0---(0)----0---(0)-----7-----------7---7-------7---------|
A|----------------------------------------3-----3---------0-------0-----------|
E|----------------------------------------------------------------------------|
 |
 |             Q         Q          Q               Q
e|------------------/8-5-5----------------------------------------------------|
B|-----6-5---------------------/8-6-6-------6-5-------------------------------|
G|--/7------/5-7-------------------------/7------/5-7---7-/9-7-9-7-9-7-9-7----|
D|---------7-------7----------------------------7-----------------------------|
A|----------------------------------------------------------------------------|
E|----------------------------------------------------------------------------|



               Q          Q          Q              Q         Q       Q           
e|-------0----------------3----------1------------------------0-------0-------|
B|-----------1-3----------3----------3--------5-----3---------3-------3-------|
G|-----2-----------2---2-(2)------2-(2)-----------5-----------5-------5-------|
D|---0-----0---------0---(0)----0---(0)-----7-----------7---7-------7---------|
A|----------------------------------------3-----3---------0-------0-----------|
E|----------------------------------------------------------------------------|
 |
 |             Q         Q          Q               Q                 s s   W        
e|------------------/8-5-5----------------------------------------------------||
B|-----6-5---------------------/8-6-6-------6-5-------------------------------||
G|--/7------/5-7-------------------------/7------/5-7---7-/9-7-9-7-9-7-9h10p9-||
D|---------7-------7----------------------------7-----------------------------||
A|----------------------------------------------------------------------------||
E|----------------------------------------------------------------------------||

comments
We did not receive enough feedback on this tab! Please rate:
1 2 3 4 5
I want to post or [tab]
guest
You may want to rate the tab now too:
select rating
Please do not post tabs as comments. Select "correction" instead!