Oops, an error
Loading. Please wait.

When Your Minds Made Up Tab

ver3
ver3

Whole song

More versions @911Tabs.com
40,721 views 39 this week
no commentswrite comment
1 2 3 4 5
accurate
x 5
add to favorites launch autoscroll
font size
0
reset
Autoscroll
+/-
esc
set tempo
stop
Contributor
Difficulty
novice
WARNING: You are trying to view
                                    content from Ultimate-Guitar.com
                                    in an unauthorized application,
                                    which is prohibited.

                                    Please use an official Ultimate
                                    Guitar Tabs application for iPhone,
                                    iPad or Android to access legitimate
                                    chords, guitar, bass, and drum tabs
                                    from Ultimate-Guitar.com database.

                                    Type "ultimate guitar tabs" in Apple
                                    App Store's or Android Market's
                                    search to find the application.
                            When Your Minds Made Up                             


                                                  Glen Hansard & Marketa Irglova
Ac. Guitar



     C5                                                        
     Q    E  Q    E  Q    E  E     Q    E  Q    E  Q    E  E   
E||-----------------------------|-----------------------------|
B||-----------------------------|-----------------------------|
G||----------5---------------5--|----------5---------------5--|
D||-------5-------5-------5-----|-------5-------5-------5-----|
A||--3---------------3----------|--3---------------3----------|
E||-----------------------------|-----------------------------|


  Am9                                                       
  Q    E  Q    E  Q    E  E     Q    E  Q    E  Q    E  E   
-----------------------------|-----------------------------|
-----------------------------|-----------------------------|
----------5---------------5--|----------5---------------5--|
-------5-------5-------5-----|-------5-------5-------5-----|
--0---------------0----------|--0---------------0----------|
-----------------------------|-----------------------------|


  G6add11                                                      
  Q       E  Q    E  Q    E  E     Q    E  Q    E  Q    E  E   
--------------------------------|-----------------------------|
-------------0------------------|----------0------------------|
------------------5-------5-----|---------------5-------5-----|
----------5------------------5--|-------5------------------5--|
--------------------------------|-----------------------------|
--3------------------3----------|--3---------------3----------|


  F7Madd11+                                                      
  Q         E  Q    E  Q    E  E     Q    E  Q    E  Q    E  E   
----------------------------------|-----------------------------|
----------------------------------|-----------------------------|
---------------2---------------2--|----------2---------------2--|
------------3-------3-------3-----|-------3-------3-------3-----|
----------------------------------|-----------------------------|
--1--------------------1----------|--1---------------1----------|


  Q    E  Q    E  Q    E  E     Q    E  Q    E  Q    E  E   
-----------------------------|-----------------------------|
--------------------------0--|-----------------------------|
----------5------------5-----|----------5---------------5--|
-------5-------5-------------|-------5-------5-------5-----|
--3---------------3----------|--3---------------3----------|
-----------------------------|-----------------------------|


  Q    E  Q    E  Q    E  E     Q    E  Q    E  Q    E  E   
-----------------------------|-----------------------------|
----------0------------------|-----------------------------|
-------5-------5----------5--|----------5---------------5--|
-----------------------5-----|-------5-------5-------5-----|
--0---------------0----------|--0---------------0----------|
-----------------------------|-----------------------------|


  Q    E  Q    E  Q    E  E     Q    E  Q    E  Q    E  E   
-----------------------------|-----------------------------|
----------0------------------|----------0------------------|
---------------5-------5-----|---------------5-------5-----|
-------5------------------5--|-------5------------------5--|
-----------------------------|-----------------------------|
--3---------------3----------|--3---------------3----------|


  Q    E  Q    E  Q    E  E     Q    E  Q    E  Q    E  E   
-----------------------------|-----------------------------|
-----------------------------|-----------------------------|
----------2---------------2--|----------2---------------2--|
-------3-------3-------3-----|-------3-------3-------3-----|
-----------------------------|-----------------------------|
--1---------------1----------|--1---------------1----------|


  Q    E  Q    E  Q    E  E     Q    E  Q    E  Q    E  E   
-----------------------------|-----------------------------|
--------------------------0--|-----------------------------|
----------5------------5-----|----------5---------------5--|
-------5-------5-------------|-------5-------5-------5-----|
--3---------------3----------|--3---------------3----------|
-----------------------------|-----------------------------|


  Q    E  Q    E  Q    E  E     Q    E  Q    E  Q    E  E   
-----------------------------|-----------------------------|
----------0------------------|-----------------------------|
-------5-------5----------5--|----------5---------------5--|
-----------------------5-----|-------5-------5-------5-----|
--0---------------0----------|--0---------------0----------|
-----------------------------|-----------------------------|


  Q    E  Q    E  Q    E  E     Q    E  Q    E  Q    E  E   
-----------------------------|-----------------------------|
----------0------------------|----------0------------------|
---------------5-------5-----|---------------5-------5-----|
-------5------------------5--|-------5------------------5--|
-----------------------------|-----------------------------|
--3---------------3----------|--3---------------3----------|


  Q    E  Q    E  Q    E  E     Q    E  Q    E  Q    E  E   
-----------------------------|-----------------------------|
-----------------------------|-----------------------------|
----------2---------------2--|----------2---------------2--|
-------3-------3-------3-----|-------3-------3-------3-----|
-----------------------------|-----------------------------|
--1---------------1----------|--1---------------1----------|


  Amadd9                                                          
  Q      E   Q     E  Q    E  E     Q    E   Q     E  Q    E  E   
------------(0)------------------|----------(0)------------------|
-------------0-------------------|-----------0-------------------|
---------5---------5-------5-----|-------5---------5-------5-----|
------------------------------7--|----------------------------7--|
--0-------------------0----------|--0-----------------0----------|
---------------------------------|-------------------------------|


  G6add11                                                          
  Q       E   Q     E  Q    E  E     Q    E   Q     E  Q    E  E   
-------------(0)------------------|----------(0)------------------|
--------------0-------------------|-----------0-------------------|
----------5---------5-------5-----|-------5---------5-------5-----|
-------------------------------5--|----------------------------5--|
----------------------------------|-------------------------------|
--3--------------------3----------|--3-----------------3----------|


  F7Madd11+                                                        
  Q         E  Q    E  Q     E   E     Q    E  Q    E  Q    E  E   
------------------------------------|-----------------------------|
----------------------------(0)-----|-----------------------------|
---------------2-------------2------|----------2------------2-----|
------------3-------3------------3--|-------3-------3----------3--|
------------------------------------|-----------------------------|
--1--------------------1------------|--1---------------1----------|


       ^   ^             v  ^          ^   ^     v  ^    ^     
  Q    E   Q     E  Q    E  E     Q    E   Q     E  Q    Q     
-----------0-------------------|-----------0-------------0----|
-----------0-------------0-----|-----------0-----0-------0----|
-------5--(5)----5-------5--5--|-------5--(5)----5-------5----|
-------7---7----------------7--|-------7---7--------7---------|
--0-----------------0----------|--0-----------------0---------|
-------------------------------|------------------------------|


       ^   ^      v         ^             ^   ^     v         ^   ^ v  
  Q    E   Q      E   Q     Q        Q    E   Q     E   Q     E.  T T  
----------(0)---------------------|----------(0)----------------------|
-----------0------0---------0-----|-----------0-----0---------0---0-0-|
-------5---------(5)--------5-----|-------5---------5---------5---5-5-|
-------5----------5--------(5)----|-------5---------5---------5---5-5-|
-------2--------------------------|--------------------(2)------------|
--3-------------------3-----------|--3------------------3-------------|


   ^        ^    v   ^      ^    v       ^      ^   ^    v   ^      ^    v    
   Q     E  Q    E   Q      E    E       Q      E   Q    E   Q      E    E    
-------------------------------------|---------------------------------------|
------------0--------------(0)-------|--------------0--------------(0)-------|
------------2---------------2--------|--(2)---------2---------------2--------|
--(3)----3-------3---3------3----3---|---3------3---3----3---3------3----3---|
---3-------------3--(3)---------(3)--|---3-----(3)-------3--(3)---------(3)--|
---1-----------------1----------(1)--|---1-------------------1----------(1)--|


  Q    E  Q    E  Q    E  E     Q    E  Q    E  Q    E  E   
-----------------------------|-----------------------------|
--------------------------0--|-----------------------------|
----------5------------5-----|----------5---------------5--|
-------5-------5-------------|-------5-------5-------5-----|
--3---------------3----------|--3---------------3----------|
-----------------------------|-----------------------------|


  Q    E  Q    E  Q    E  E     Q    E  Q    E  Q    E  E   
-----------------------------|-----------------------------|
----------0------------------|-----------------------------|
-------5-------5----------5--|----------5---------------5--|
-----------------------5-----|-------5-------5-------5-----|
--0---------------0----------|--0---------------0----------|
-----------------------------|-----------------------------|


  Q    E  Q    E  Q    E  E     Q    E  Q    E  Q    E  E   
-----------------------------|-----------------------------|
----------0------------------|----------0------------------|
---------------5-------5-----|---------------5-------5-----|
-------5------------------5--|-------5------------------5--|
-----------------------------|-----------------------------|
--3---------------3----------|--3---------------3----------|


  Q    E  Q    E  Q    E  E     Q    E  Q    E  Q    E  E   
-----------------------------|-----------------------------|
-----------------------------|-----------------------------|
----------2---------------2--|----------2---------------2--|
-------3-------3-------3-----|-------3-------3-------3-----|
-----------------------------|-----------------------------|
--1---------------1----------|--1---------------1----------|


  Q    E  Q    E  Q    E  E     Q    E  Q    E  Q    E  E   
-----------------------------|-----------------------------|
--------------------------0--|-----------------------------|
----------5------------5-----|----------5---------------5--|
-------5-------5-------------|-------5-------5-------5-----|
--3---------------3----------|--3---------------3----------|
-----------------------------|-----------------------------|


  Q    E  Q    E  Q    E  E     Q    E  Q    E  Q    E  E   
-----------------------------|-----------------------------|
----------0------------------|-----------------------------|
-------5-------5----------5--|----------5---------------5--|
-----------------------5-----|-------5-------5-------5-----|
--0---------------0----------|--0---------------0----------|
-----------------------------|-----------------------------|


  Q    E  Q    E  Q    E  E     Q    E  Q    E  Q    E  E   
-----------------------------|-----------------------------|
----------0------------------|----------0------------------|
---------------5-------5-----|---------------5-------5-----|
-------5------------------5--|-------5------------------5--|
-----------------------------|-----------------------------|
--3---------------3----------|--3---------------3----------|


  Q    E  Q    E  Q    E  E     Q    E  Q    E  Q    E  E   
-----------------------------|-----------------------------|
-----------------------------|-----------------------------|
----------2---------------2--|----------2---------------2--|
-------3-------3-------3-----|-------3-------3-------3-----|
-----------------------------|-----------------------------|
--1---------------1----------|--1---------------1----------|


  ^    v  ^    v  ^    ^       ^    v  ^    v  ^    ^     
  Q    E  Q    E  Q    Q       Q    E  Q    E  Q    Q     
----------0------------0----|----------0------------0----|
--0-------0------------0----|--0-------0------------0----|
--5----5--5----5--5----5----|--5----5--5----5--5----5----|
--7----7--7----5--7----7----|--7----7--7----5--7----7----|
--0-------0-------0---------|--0-------0-------0---------|
----------------------------|----------------------------|


  ^    ^  ^    v  ^    ^       ^    ^  ^    v  ^    ^   v ^  
  Q    E  Q    E  Q    Q       Q    E  Q    E  Q    E.  T T  
----------0-----------------|----------0--------------------|
----------0----0-------0----|----------0----0-------0-------|
-------5--5----5-------5----|-------5--5----5-------5---5-5-|
--5----5--5----5-------5----|--5----5--5----5-------5---5-5-|
--2----2----------2---------|--2----2----------2--------2-2-|
--3---------------3---------|--3---------------3------------|


  ^    ^  ^    v  ^    ^  v     ^    ^  ^    v  ^    ^  v   
  Q    E  Q    E  Q    E  E     Q    E  Q    E  Q    E  E   
----------0------------0-----|----------0------------0-----|
----------0------------0-----|----------0------------0-----|
--2-------2------------2-----|--2-------2------------2-----|
--3----3-------3--3----3--3--|--3----3-------3--3----3--3--|
--3----3-------3--3-------3--|--3----3-------3--3-------3--|
--1---------------1-------1--|--1---------------1-------1--|


  ^    v  ^    v  ^    ^       ^    v  ^    v  ^    ^     
  Q    E  Q    E  Q    Q       Q    E  Q    E  Q    Q     
----------0------------0----|----------0------------0----|
--0-------0------------0----|--0-------0------------0----|
--5----5--5----5--5----5----|--5----5--5----5--5----5----|
--7----7--7----5--7----7----|--7----7--7----5--7----7----|
--0-------0-------0---------|--0-------0-------0---------|
----------------------------|----------------------------|


  ^    ^  ^    v  ^    ^       ^    ^  ^    v  ^    ^   v ^  
  Q    E  Q    E  Q    Q       Q    E  Q    E  Q    E.  T T  
----------0-----------------|----------0--------------------|
----------0----0-------0----|----------0----0-------0-------|
-------5--5----5-------5----|-------5--5----5-------5---5-5-|
--5----5--5----5-------5----|--5----5--5----5-------5---5-5-|
--2----2----------2---------|--2----2----------2--------2-2-|
--3---------------3---------|--3---------------3------------|


  ^    ^  ^    v  ^    ^  v     ^    ^  ^    v  ^    ^  v   
  Q    E  Q    E  Q    E  E     Q    E  Q    E  Q    E  E   
----------0------------0-----|----------0------------0-----|
----------0------------0-----|----------0------------0-----|
--2-------2------------2-----|--2-------2------------2-----|
--3----3-------3--3----3--3--|--3----3-------3--3----3--3--|
--3----3-------3--3-------3--|--3----3-------3--3-------3--|
--1---------------1-------1--|--1---------------1-------1--|


  ^    v  ^    v  ^    ^       ^    v  ^    v  ^    ^     
  Q    E  Q    E  Q    Q       Q    E  Q    E  Q    Q     
----------0------------0----|----------0------------0----|
--0-------0------------0----|--0-------0------------0----|
--5----5--5----5--5----5----|--5----5--5----5--5----5----|
--7----7--7----5--7----7----|--7----7--7----5--7----7----|
--0-------0-------0---------|--0-------0-------0---------|
----------------------------|----------------------------|


  ^    ^  ^    v  ^    ^       ^    ^  ^    v  ^    ^   v ^  
  Q    E  Q    E  Q    Q       Q    E  Q    E  Q    E.  T T  
----------0-----------------|----------0--------------------|
----------0----0-------0----|----------0----0-------0-------|
-------5--5----5-------5----|-------5--5----5-------5---5-5-|
--5----5--5----5-------5----|--5----5--5----5-------5---5-5-|
--2----2----------2---------|--2----2----------2--------2-2-|
--3---------------3---------|--3---------------3------------|


  ^    ^  ^    v  ^    ^  v     ^    ^  ^    v  ^    ^  v   
  Q    E  Q    E  Q    E  E     Q    E  Q    E  Q    E  E   
----------0------------0-----|----------0------------0-----|
----------0------------0-----|----------0------------0-----|
--2-------2------------2-----|--2-------2------------2-----|
--3----3-------3--3----3--3--|--3----3-------3--3----3--3--|
--3----3-------3--3-------3--|--3----3-------3--3-------3--|
--1---------------1-------1--|--1---------------1-------1--|


  ^    v  ^    v  ^    ^       ^    v  ^    v  ^    ^     
  Q    E  Q    E  Q    Q       Q    E  Q    E  Q    Q     
----------0------------0----|----------0------------0----|
--0-------0------------0----|--0-------0------------0----|
--5----5--5----5--5----5----|--5----5--5----5--5----5----|
--7----7--7----5--7----7----|--7----7--7----5--7----7----|
--0-------0-------0---------|--0-------0-------0---------|
----------------------------|----------------------------|


  ^    ^  ^    v  ^    ^       ^    ^  ^    v  ^    ^   v ^  
  Q    E  Q    E  Q    Q       Q    E  Q    E  Q    E.  T T  
----------0-----------------|----------0--------------------|
----------0----0-------0----|----------0----0-------0-------|
-------5--5----5-------5----|-------5--5----5-------5---5-5-|
--5----5--5----5-------5----|--5----5--5----5-------5---5-5-|
--2----2----------2---------|--2----2----------2--------2-2-|
--3---------------3---------|--3---------------3------------|


  ^    ^  ^    v  ^    ^  v     ^    ^  ^    v  ^    ^  v   
  Q    E  Q    E  Q    E  E     Q    E  Q    E  Q    E  E   
----------0------------0-----|----------0------------0-----|
----------0------------0-----|----------0------------0-----|
--2-------2------------2-----|--2-------2------------2-----|
--3----3-------3--3----3--3--|--3----3-------3--3----3--3--|
--3----3-------3--3-------3--|--3----3-------3--3-------3--|
--1---------------1-------1--|--1---------------1-------1--|


  ^    v  ^    v  ^    ^       ^    v  ^    v  ^    ^     
  Q    E  Q    E  Q    Q       Q    E  Q    E  Q    Q     
----------0------------0----|----------0------------0----|
--0-------0------------0----|--0-------0------------0----|
--5----5--5----5--5----5----|--5----5--5----5--5----5----|
--7----7--7----5--7----7----|--7----7--7----5--7----7----|
--0-------0-------0---------|--0-------0-------0---------|
----------------------------|----------------------------|


  ^    ^  ^    v  ^    ^       ^    ^  ^    v  ^    ^   v ^  
  Q    E  Q    E  Q    Q       Q    E  Q    E  Q    E.  T T  
----------0-----------------|----------0--------------------|
----------0----0-------0----|----------0----0-------0-------|
-------5--5----5-------5----|-------5--5----5-------5---5-5-|
--5----5--5----5-------5----|--5----5--5----5-------5---5-5-|
--2----2----------2---------|--2----2----------2--------2-2-|
--3---------------3---------|--3---------------3------------|


  ^    ^  ^    v  ^    ^  v     ^    ^  ^    v  ^    ^  v   
  Q    E  Q    E  Q    E  E     Q    E  Q    E  Q    E  E   
----------0------------0-----|----------0------------0-----|
----------0------------0-----|----------0------------0-----|
--2-------2------------2-----|--2-------2------------2-----|
--3----3-------3--3----3--3--|--3----3-------3--3----3--3--|
--3----3-------3--3-------3--|--3----3-------3--3-------3--|
--1---------------1-------1--|--1---------------1-------1--|


  ^    v  ^    v  ^    ^       ^    v  ^    v  ^    ^     
  Q    E  Q    E  Q    Q       Q    E  Q    E  Q    Q     
----------0------------0----|----------0------------0----|
--0-------0------------0----|--0-------0------------0----|
--5----5--5----5--5----5----|--5----5--5----5--5----5----|
--7----7--7----5--7----7----|--7----7--7----5--7----7----|
--0-------0-------0---------|--0-------0-------0---------|
----------------------------|----------------------------|


  ^    ^  ^    v  ^    ^       ^    ^  ^    v  ^    ^   v ^  
  Q    E  Q    E  Q    Q       Q    E  Q    E  Q    E.  T T  
----------0-----------------|----------0--------------------|
----------0----0-------0----|----------0----0-------0-------|
-------5--5----5-------5----|-------5--5----5-------5---5-5-|
--5----5--5----5-------5----|--5----5--5----5-------5---5-5-|
--2----2----------2---------|--2----2----------2--------2-2-|
--3---------------3---------|--3---------------3------------|


  ^    ^  ^    v  ^    ^  v     ^    ^  ^    v  ^    ^  v   
  Q    E  Q    E  Q    E  E     Q    E  Q    E  Q    E  E   
----------0------------0-----|----------0------------0-----|
----------0------------0-----|----------0------------0-----|
--2-------2------------2-----|--2-------2------------2-----|
--3----3-------3--3----3--3--|--3----3-------3--3----3--3--|
--3----3-------3--3-------3--|--3----3-------3--3-------3--|
--1---------------1-------1--|--1---------------1-------1--|


  ^    v  ^    v  ^    ^       ^    v  ^    v  ^    ^     
  Q    E  Q    E  Q    Q       Q    E  Q    E  Q    Q     
----------0------------0----|----------0------------0----|
--0-------0------------0----|--0-------0------------0----|
--5----5--5----5--5----5----|--5----5--5----5--5----5----|
--7----7--7----5--7----7----|--7----7--7----5--7----7----|
--0-------0-------0---------|--0-------0-------0---------|
----------------------------|----------------------------|


  ^    ^  ^    v  ^    ^       ^    ^  ^    v  ^    ^   v ^  
  Q    E  Q    E  Q    Q       Q    E  Q    E  Q    E.  T T  
----------0-----------------|----------0--------------------|
----------0----0-------0----|----------0----0-------0-------|
-------5--5----5-------5----|-------5--5----5-------5---5-5-|
--5----5--5----5-------5----|--5----5--5----5-------5---5-5-|
--2----2----------2---------|--2----2----------2--------2-2-|
--3---------------3---------|--3---------------3------------|


  ^    ^  ^    v  ^    ^  v     ^    ^  ^    v  ^    ^  v   
  Q    E  Q    E  Q    E  E     Q    E  Q    E  Q    E  E   
----------0------------0-----|----------0------------0-----|
----------0------------0-----|----------0------------0-----|
--2-------2------------2-----|--2-------2------------2-----|
--3----3-------3--3----3--3--|--3----3-------3--3----3--3--|
--3----3-------3--3-------3--|--3----3-------3--3-------3--|
--1---------------1-------1--|--1---------------1-------1--|


  ^    v  ^    v  ^    ^       ^    v  ^    v  ^    ^     
  Q    E  Q    E  Q    Q       Q    E  Q    E  Q    Q     
----------0------------0----|----------0------------0----|
--0-------0------------0----|--0-------0------------0----|
--5----5--5----5--5----5----|--5----5--5----5--5----5----|
--7----7--7----5--7----7----|--7----7--7----5--7----7----|
--0-------0-------0---------|--0-------0-------0---------|
----------------------------|----------------------------|


  ^    ^  ^    v  ^    ^       ^    ^  ^    v  ^    ^   v ^  
  Q    E  Q    E  Q    Q       Q    E  Q    E  Q    E.  T T  
----------0-----------------|----------0--------------------|
----------0----0-------0----|----------0----0-------0-------|
-------5--5----5-------5----|-------5--5----5-------5---5-5-|
--5----5--5----5-------5----|--5----5--5----5-------5---5-5-|
--2----2----------2---------|--2----2----------2--------2-2-|
--3---------------3---------|--3---------------3------------|


  ^    ^  ^    v  ^    ^  v     ^    ^  ^    v  ^    ^  v   
  Q    E  Q    E  Q    E  E     Q    E  Q    E  Q    E  E   
----------0------------0-----|----------0------------0-----|
----------0------------0-----|----------0------------0-----|
--2-------2------------2-----|--2-------2------------2-----|
--3----3-------3--3----3--3--|--3----3-------3--3----3--3--|
--3----3-------3--3-------3--|--3----3-------3--3-------3--|
--1---------------1-------1--|--1---------------1-------1--|


  ^    v  ^    v  ^    ^       ^    v  ^    v  ^    ^     
  Q    E  Q    E  Q    Q       Q    E  Q    E  Q    Q     
----------0------------0----|----------0------------0----|
--0-------0------------0----|--0-------0------------0----|
--5----5--5----5--5----5----|--5----5--5----5--5----5----|
--7----7--7----5--7----7----|--7----7--7----5--7----7----|
--0-------0-------0---------|--0-------0-------0---------|
----------------------------|----------------------------|


  ^    ^  ^    v  ^    ^       ^    ^  ^    v  ^    ^   v ^  
  Q    E  Q    E  Q    Q       Q    E  Q    E  Q    E.  T T  
----------0-----------------|----------0--------------------|
----------0----0-------0----|----------0----0-------0-------|
-------5--5----5-------5----|-------5--5----5-------5---5-5-|
--5----5--5----5-------5----|--5----5--5----5-------5---5-5-|
--2----2----------2---------|--2----2----------2--------2-2-|
--3---------------3---------|--3---------------3------------|


  ^    ^  ^    v  ^    ^  v     ^    ^  ^    v  ^    ^  v   
  Q    E  Q    E  Q    E  E     Q    E  Q    E  Q    E  E   
----------0------------0-----|----------0------------0-----|
----------0------------0-----|----------0------------0-----|
--2-------2------------2-----|--2-------2------------2-----|
--3----3-------3--3----3--3--|--3----3-------3--3----3--3--|
--3----3-------3--3-------3--|--3----3-------3--3-------3--|
--1---------------1-------1--|--1---------------1-------1--|


  Q    E  Q    E  Q    E  E     Q    E  Q    E  Q    E  E   
-----------------------------|-----------------------------|
-----------------------------|-----------------------------|
----------5---------------5--|----------5---------------5--|
-------5-------5-------5-----|-------5-------5-------5-----|
--3---------------3----------|--3---------------3----------|
-----------------------------|-----------------------------|


  Q    E  Q    E  Q    E  E     Q    E  Q    E  Q    E  E   
-----------------------------|-----------------------------|
-----------------------------|----------0------------------|
----------5---------------5--|-------5-------5----------5--|
-------5-------5-------5-----|-----------------------5-----|
--0---------------0----------|--0---------------0----------|
-----------------------------|-----------------------------|


  Q    E  Q    E  Q    E  E     Q    E  Q    E  Q    E  E   
-----------------------------|-----------------------------|
-----------------------------|-----------------------------|
----------5---------------5--|----------5---------------5--|
-------5-------5-------5-----|-------5-------5-------5-----|
-----------------------------|-----------------------------|
--3---------------3----------|--3---------------3----------|


  W                Q       W                Q       W                Q     
------------------------|------------------------|------------------------|
------------------------|------------------------|------------------------|
------------------------|------------------------|------------------------|
------------------------|------------------------|------------------------|
------------------------|------------------------|------------------------|
--1----------------L----|--L----------------L----|--L----------------L----|


  W                Q      
------------------------||
------------------------||
------------------------||
------------------------||
------------------------||
--L----------------L----||




Duration Legend
---------------
W - whole
H - half
Q - quarter
E - 8th
S - 16th
T - 32nd
X - 64th
. - note dotted
|-n-|  - n-tuplets


Tablature Legend
----------------
L - tied note
x - dead note
g - grace note
(n) - ghost note
> - accentuded note
NH - natural harmonic
AH - artificial harmonic
TH - tapped harmonic
SH - semi harmonic
PH - pitch harmonic
h - hammer on
p - pull off
b - bend
br - bendRelease
pb - preBend
pbr - preBendRelease
brb - bendReleaseBend
\n/ - tremolo bar dip
\n - tremolo bar dive
-/n - tremolo bar Release up
/n\ - tremolo bar inverted dip
/n - tremolo bar return
-\n - tremolo bar Release down
S - shift slide
s - legato slide
/ -  slide into from below or out of upwards
\ -  slide into from above or out of downwards
~ - vibrato
W - wide vibrato
tr - trill
TP - tremolo picking
T - tapping
S - slap
P - pop
< - fade in
^ - brush up
v - brush down
comments
print report bad tab
I want to post or [tab]
guest
You may want to rate the tab now too:
select rating
Please do not post tabs as comments. Select "correction" instead!