Oops, an error
Loading. Please wait.

Break Tab

by Gob
ver1
ver1

Whole song

Interactive

More versions @911Tabs.com
811 views 3 this week
no commentswrite comment
1 2 3 4 5
excellent!
x 1
Autoscroll
+/-
esc
set tempo
stop
Contributor
Hey! There's an official Ultimate Guitar app which is ideal
for learning songs when you're away from computer. Get the app
WARNING: You are trying to view
                                    content from Ultimate-Guitar.com
                                    in an unauthorized application,
                                    which is prohibited.

                                    Please use an official Ultimate
                                    Guitar Tabs application for iPhone,
                                    iPad or Android to access legitimate
                                    chords, guitar, bass, and drum tabs
                                    from Ultimate-Guitar.com database.

                                    Type "ultimate guitar tabs" in Apple
                                    App Store's or Android Market's
                                    search to find the application.
Song: Break
Artist: Gob
Year: 2004
Transcribed by: theshermanator (theshermanator@hotmail.com) (2 guitars transcribed)
Tuning: Dropped ½ Step (Eb Ab Db Gb bb eb = D# G# C# F# A# D#)

Key:
/ = Slide up
\ = Slide down
m = Palm mute
h = Hammer on
* = Harmonics

Another great song by Gob!

Guitar 1
                       Intro (00:00)                                   
D#||------------------|----------------------------------|
A#||------------------|--8-8-8---------------------------|
F#||------------------|--------7-5-4-5-5-5-4-5-4-5-7-4-4-|
C#||------------------|----------------------------------|
G#||------------------|----------------------------------|
D#||------------------|----------------------------------|


                                                                      
----------------------------------|----------------------------------|
--8-8-8---------------------------|--8-8-8---------------------------|
--------7-5-4-5-5-5-4-5-4-5-7-4-4-|--------7-5-4-5-5-5-4-5-4-5-7-4-4-|
----------------------------------|----------------------------------|
----------------------------------|----------------------------------|
----------------------------------|----------------------------------|


                                                                      
----------------------------------|----------------------------------|
--8-8-8---------------------------|--8-8-8---------------------------|
--------7-5-4-5-5-5-4-5-4-5-7-4-4-|--------7-5-4-5-5-5-4-5-4-5-7-4-4-|
----------------------------------|----------------------------------|
----------------------------------|----------------------------------|
----------------------------------|----------------------------------|


                                                                      
----------------------------------|----------------------------------|
--8-8-8---------------------------|--8-8-8---------------------------|
--------7-5-4-5-5-5-4-5-4-5-7-4-4-|--------7-5-4-5-5-5-4-5-4-5-7-4-4-|
----------------------------------|----------------------------------|
----------------------------------|----------------------------------|
----------------------------------|----------------------------------|


                                   Verse 1 (00:20)                                   
----------------------------------|----------------------------------|
--8-8-8---------------------------|----------------------------------|
--------7-5-4-5-5-5-4-5-4-5-7-4-4-|----------------------------------|
----------------------------------|--5-5-5-5-5-5-5-5-5-5-5-5-5-5-5-5-|
----------------------------------|--5-5-5-5-5-5-5-5-5-5-5-5-5-5-5-5-|
----------------------------------|--3-3-3-3-3-3-3-3-3-3-3-3-3-3-3-3-|
                                     m m m m m m m m m m m m m m m m

                                                                    
----------------------------------|--------------------------------|
----------------------------------|--------------------------------|
------------------5-5-5-5-5-5-5-5-|--------------------------------|
--2-2-2-2-2-2-2-2-5-5-5-5-5-5-5-5-|--5-5-5-5-5-5-5-5-5-5---------5-|
--2-2-2-2-2-2-2-2-3-3-3-3-3-3-3-3-|--5-5-5-5-5-5-5-5-5-5-2--3--2-5-|
--0-0-0-0-0-0-0-0-----------------|--3-3-3-3-3-3-3-3-3-3---------3-|
  m m m m m m m m m m m m m m m m    m m m m m m m m m m         m 

                                                                  
----------------------------------|------------------------------|
----------------------------------|------------------------------|
------------------5-5-5-5-5-5-5-5-|------------------------------|
--2-2-2-2-2-2-2-2-5-5-5-5-5-5-5-5-|--5-5-5--5-5-5--5-5-5--5-5-5--|
--2-2-2-2-2-2-2-2-3-3-3-3-3-3-3-3-|--5-5-5--5-5-5--5-5-5--5-5-5--|
--0-0-0-0-0-0-0-0-----------------|--3-3-3--3-3-3--3-3-3--3-3-3--|
  m m m m m m m m m m m m m m m m    m m    m m    m m    m m

                                                           
---------------------------|------------------------------|
---------------------------|------------------------------|
---------------------------|------------------------------|
--2-2-2--2-2-2-------------|--5-5-5--5-5-5--5-5-5--5-5-5--|
--2-2-2--2-2-2--2---3----2-|--5-5-5--5-5-5--5-5-5--5-5-5--|
--0-0-0--0-0-0-------------|--3-3-3--3-3-3--3-3-3--3-3-3--|
  m m    m m                  m m    m m    m m    m m

                                 Chorus 1 (00:40)                                 
--------------------------------|---------------------------------|
--------------------------------|---------------------------------|
----------------5-5-5-5-5-5-----|---------------------------------|
--2-2-2--2-2-2--5-5-5-5-5-5-----|-------------5-5-5-5-5-5-5-5-5-5-|
--2-2-2--2-2-2--3-3-3-3-3-3-3-5-|------2------5-5-5-5-5-5-5-5-5-5-|
--0-0-0--0-0-0------------------|--3h5---5-3--3-3-3-3-3-3-3-3-3-3-|
  m m    m m    m m m m m m

                                                                      
----------------------------------|----------------------------------|
----------------------------------|----------------------------------|
--7-7-7-7-7-7-7-7-7-7-7-7-7-7-7-7-|----------------------------------|
--7-7-7-7-7-7-7-7-7-7-7-7-7-7-7-7-|--2-2-2-2-2-2-2-2-2-2-2-2-2-2-2-2-|
--5-5-5-5-5-5-5-5-5-5-5-5-5-5-5-5-|--2-2-2-2-2-2-2-2-2-2-2-2-2-2-2-2-|
----------------------------------|--0-0-0-0-0-0-0-0-0-0-0-0-0-0-0-0-|


                                                                     
----------------------------------|---------------------------------|
----------------------------------|---------------------------------|
--5-5-5-5-5-5-5-5-5-5-5-5-5-5-5-5-|---------------------------------|
--5-5-5-5-5-5-5-5-5-5-5-5-5-5-5-5-|--------0----5-5-5-5-5-5-5-5-5-5-|
--3-3-3-3-3-3-3-3-3-3-3-3-3-3-3-3-|--3-2-3------5-5-5-5-5-5-5-5-5-5-|
----------------------------------|----------3--3-3-3-3-3-3-3-3-3-3-|


                                                                              
----------------------------------|------------------------------------------|
----------------------------------|------------------------------------------|
--7-7-7-7-7-7-7-7-7-7-7-7-7-7-7-7-|--12-12-12-12-11-11-11-11-9-9-9-9-7-7-7-7-|
--7-7-7-7-7-7-7-7-7-7-7-7-7-7-7-7-|--x--x--x--x--x--x--x--x--x-x-x-x-x-x-x-x-|
--5-5-5-5-5-5-5-5-5-5-5-5-5-5-5-5-|--10-10-10-10-9--9--9--9--7-7-7-7-5-5-5-5-|
----------------------------------|------------------------------------------|


                                                                 
-----------------------------|----------------------------------|
-----------------------------|----------------------------------|
--9-9-9-9-7-7-7-7-5----------|--------------------------5-5-5-5-|
--x-x-x-x-x-x-x-x-x----------|--5-5-5-5-3-3-3-3-2-2-2-2-5-5-5-5-|
--7-7-7-7-5-5-5-5-3----------|--5-5-5-5-3-3-3-3-2-2-2-2-3-3-3-3-|
----------------------12/----|--3-3-3-3-1-1-1-1-0-0-0-0---------|


                                                                             
----------------------------------|-----------------------------------------|
----------------------------------|-----------------------------------------|
--------------------------5-5-5-5-|-----------------------------------------|
--5-5-5-5-3-3-3-3-2-2-2-2-5-5-5-5-|--10-9-7----7----7-7-7----7----7-9-------|
--5-5-5-5-3-3-3-3-2-2-2-2-3-3-3-3-|---------10---10-------10---10-----10-10-|
--3-3-3-3-1-1-1-1-0-0-0-0---------|-----------------------------------------|


Verse 2 (01:08)                                                                    
----------------------------------|----------------------------------|
----------------------------------|----------------------------------|
----------------------------------|------------------5-5-5-5-5-5-5-5-|
--5-5-5-5-5-5-5-5-5-5-5-5-5-5-5-5-|--2-2-2-2-2-2-2-2-5-5-5-5-5-5-5-5-|
--5-5-5-5-5-5-5-5-5-5-5-5-5-5-5-5-|--2-2-2-2-2-2-2-2-3-3-3-3-3-3-3-3-|
--3-3-3-3-3-3-3-3-3-3-3-3-3-3-3-3-|--0-0-0-0-0-0-0-0-----------------|
  m m m m m m m m m m m m m m m m    m m m m m m m m m m m m m m m m

                                                                    
--------------------------------|----------------------------------|
--------------------------------|----------------------------------|
--------------------------------|------------------5-5-5-5-5-5-5-5-|
--5-5-5-5-5-5-5-5-5-5---------5-|--2-2-2-2-2-2-2-2-5-5-5-5-5-5-5-5-|
--5-5-5-5-5-5-5-5-5-5-2--3--2-5-|--2-2-2-2-2-2-2-2-3-3-3-3-3-3-3-3-|
--3-3-3-3-3-3-3-3-3-3---------3-|--0-0-0-0-0-0-0-0-----------------|
  m m m m m m m m m m         m    m m m m m m m m m m m m m m m m 

                                                           
------------------------------|---------------------------|
------------------------------|---------------------------|
------------------------------|---------------------------|
--5-5-5--5-5-5--5-5-5--5-5-5--|--2-2-2--2-2-2-------------|
--5-5-5--5-5-5--5-5-5--5-5-5--|--2-2-2--2-2-2--2---3----2-|
--3-3-3--3-3-3--3-3-3--3-3-3--|--0-0-0--0-0-0-------------|
  m m    m m    m m    m m       m m    m m  

                                                                
------------------------------|--------------------------------|
------------------------------|--------------------------------|
------------------------------|----------------5-5-5-5-5-5-----|
--5-5-5--5-5-5--5-5-5--5-5-5--|--2-2-2--2-2-2--5-5-5-5-5-5-----|
--5-5-5--5-5-5--5-5-5--5-5-5--|--2-2-2--2-2-2--3-3-3-3-3-3-3-5-|
--3-3-3--3-3-3--3-3-3--3-3-3--|--0-0-0--0-0-0------------------|


Chorus 2 (01:29)                                                                     
---------------------------------|----------------------------------|
---------------------------------|----------------------------------|
---------------------------------|--7-7-7-7-7-7-7-7-7-7-7-7-7-7-7-7-|
-------------5-5-5-5-5-5-5-5-5-5-|--7-7-7-7-7-7-7-7-7-7-7-7-7-7-7-7-|
------2------5-5-5-5-5-5-5-5-5-5-|--5-5-5-5-5-5-5-5-5-5-5-5-5-5-5-5-|
--3h5---5-3--3-3-3-3-3-3-3-3-3-3-|----------------------------------|


                                                                      
----------------------------------|----------------------------------|
----------------------------------|----------------------------------|
----------------------------------|--5-5-5-5-5-5-5-5-5-5-5-5-5-5-5-5-|
--2-2-2-2-2-2-2-2-2-2-2-2-2-2-2-2-|--5-5-5-5-5-5-5-5-5-5-5-5-5-5-5-5-|
--2-2-2-2-2-2-2-2-2-2-2-2-2-2-2-2-|--3-3-3-3-3-3-3-3-3-3-3-3-3-3-3-3-|
--0-0-0-0-0-0-0-0-0-0-0-0-0-0-0-0-|----------------------------------|


                                                                     
---------------------------------|----------------------------------|
---------------------------------|----------------------------------|
---------------------------------|--7-7-7-7-7-7-7-7-7-7-7-7-7-7-7-7-|
--------0----5-5-5-5-5-5-5-5-5-5-|--7-7-7-7-7-7-7-7-7-7-7-7-7-7-7-7-|
--3-2-3------5-5-5-5-5-5-5-5-5-5-|--5-5-5-5-5-5-5-5-5-5-5-5-5-5-5-5-|
----------3--3-3-3-3-3-3-3-3-3-3-|----------------------------------|


                                                                              
------------------------------------------|----------------------------------|
------------------------------------------|----------------------------------|
--12-12-12-12-11-11-11-11-9-9-9-9-7-7-7-7-|--9-9-9-9-7-7-7-7-5---------------|
--x--x--x--x--x--x--x--x--x-x-x-x-x-x-x-x-|--x-x-x-x-x-x-x-x-x-x-x-x-x-x-x-x-|
--10-10-10-10-9--9--9--9--7-7-7-7-5-5-5-5-|--7-7-7-7-5-5-5-5-3-x-x-x-x-x-x-x-|
------------------------------------------|--------------------x-x-x-x-x-x-x-|


                                                                      
----------------------------------|----------------------------------|
----------------------------------|----------------------------------|
--------------------------5-5-5-5-|--------------------------5-5-5-5-|
--5-5-5-5-3-3-3-3-2-2-2-2-5-5-5-5-|--5-5-5-5-3-3-3-3-2-2-2-2-5-5-5-5-|
--5-5-5-5-3-3-3-3-2-2-2-2-3-3-3-3-|--5-5-5-5-3-3-3-3-2-2-2-2-3-3-3-3-|
--3-3-3-3-1-1-1-1-0-0-0-0---------|--3-3-3-3-1-1-1-1-0-0-0-0---------|


                                                                      
----------------------------------|----------------------------------|
----------------------------------|----------------------------------|
--------------------------5-5-5-5-|--------------------------5-5-5-5-|
--5-5-5-5-3-3-3-3-2-2-2-2-5-5-5-5-|--5-5-5-5-3-3-3-3-2-2-2-2-5-5-5-5-|
--5-5-5-5-3-3-3-3-2-2-2-2-3-3-3-3-|--5-5-5-5-3-3-3-3-2-2-2-2-3-3-3-3-|
--3-3-3-3-1-1-1-1-0-0-0-0---------|--3-3-3-3-1-1-1-1-0-0-0-0---------|


                      Bridge (02:03)                                   
---------------------|----------------------------------|
---------------------|----------------------------------|
--5------------5-----|--7-7-7-7-7-7-7-7-----------------|
--5------------5--5--|--7-7-7-7-7-7-7-7-7-7-7-7-7-7-7-7-|
--3------------3--5--|--5-5-5-5-5-5-5-5-7-7-7-7-7-7-7-7-|
------------------3--|------------------5-5-5-5-5-5-5-5-|
                        m m m m m m m m m m m m m m m m 

                                                   
--------------------------------------------------|
--------------------------------------------------|
--10-10-10-10-10-10-10-10-------------------------|
--10-10-10-10-10-10-10-10-10-10-10-10-10-10-10-10-|
--8--8--8--8--8--8--8--8--10-10-10-10-10-10-10-10-|
--------------------------8--8--8--8--8--8--8--8--|
  m  m  m  m  m  m  m  m  m  m  m  m  m  m  m  m

                                                                                
--------------------------------|----------------------------------------------|
--------------------------------|----------------------------------------------|
--7-7-7-7-7--7-7----------------|--10-10-10-10-10--10-10-----------------------|
--7-7-7-7-7--7-7-7--7-7-7-7-7-7-|--10-10-10-10-10--10-10-10--10-10-10-10-10-10-|
--5-5-5-5-5--5-5-7--7-7-7-7-7-7-|--8--8--8--8--8---8--8--10--10-10-10-10-10-10-|
-----------------5--5-5-5-5-5-5-|------------------------8---8--8--8--8--8--8--|
  m m m m    m m    m m m m m m    m  m  m  m      m  m      m  m  m  m  m  m 

                                   
----------------------------------|
----------------------------------|
--7-7-7-7-7-7-7-7-----------------|
--7-7-7-7-7-7-7-7-7-7-7-7-7-7-7-7-|
--5-5-5-5-5-5-5-5-7-7-7-7-7-7-7-7-|
------------------5-5-5-5-5-5-5-5-|
  m m m m m m m m m m m m m m m m

                                                   
--------------------------------------------------|
--------------------------------------------------|
--10-10-10-10-10-10-10-10-------------------------|
--10-10-10-10-10-10-10-10-10-10-10-10-10-10-10-10-|
--8--8--8--8--8--8--8--8--10-10-10-10-10-10-10-10-|
--------------------------8--8--8--8--8--8--8--8--|
  m  m  m  m  m  m  m  m  m  m  m  m  m  m  m  m

                                   
----------------------------------|
----------------------------------|
--7-7-7-7-7-7-7-7-----------------|
--7-7-7-7-7-7-7-7-7-7-7-7-7-7-7-7-|
--5-5-5-5-5-5-5-5-7-7-7-7-7-7-7-7-|
------------------5-5-5-5-5-5-5-5-|
  m m m m m m m m m m m m m m m m

                                                   
--------------------------------------------------|
--------------------------------------------------|
--10-10-10-10-10-10-10-10-10-10-10-10-10-10-10-10-|
--10-10-10-10-10-10-10-10-10-10-10-10-10-10-10-10-|
--8--8--8--8--8--8--8--8--8--8--8--8--8--8--8--8--|
--------------------------------------------------|


                                          
-----------------------------------------|
-----------------------------------------|
-----------------------------------------|
--10-9-7----7----7-7-7----7----7-9-------|
---------10---10-------10---10-----10-10-|
-----------------------------------------|


                                          
-----------------------------------------|
-----------------------------------------|
-----------------------------------------|
--10-9-7----7----7-7-7----7----7-9-------|
---------10---10-------10---10-----10-10-|
-----------------------------------------|


                                          
-----------------------------------------|
-----------------------------------------|
-----------------------------------------|
--10-9-7----7----7-7-7----7----7-9-------|
---------10---10-------10---10-----10-10-|
-----------------------------------------|


                                                                             
-----------------------------------------|----------------------------------|
-----------------------------------------|----------------------------------|
-----------------------------------------|--7-7-7-7-7-7-7-7-7-7-7-7-7-7-7-7-|
--10-9-7----7----7-7-7----7----7-9-------|--7-7-7-7-7-7-7-7-7-7-7-7-7-7-7-7-|
---------10---10-------10---10-----10-10-|--5-5-5-5-5-5-5-5-5-5-5-5-5-5-5-5-|
-----------------------------------------|----------------------------------|


                  Chorus 3 (02:38)                                                  
---------------------------------|----------------------------------|
---------------------------------|----------------------------------|
--7-7-7-7-7-7-7-7----------------|------------------7-7-7-7-7-7-7-7-|
--7-7-7-7-7-7-7-7------------5-5-|--5-5-5-5-5-5-5-5-7-7-7-7-7-7-7-7-|
--5-5-5-5-5-5-5-5-----2------5-5-|--5-5-5-5-5-5-5-5-5-5-5-5-5-5-5-5-|
------------------3h5---5-3--3-3-|--3-3-3-3-3-3-3-3-----------------|


                                                                      
----------------------------------|----------------------------------|
----------------------------------|----------------------------------|
--7-7-7-7-7-7-7-7-----------------|------------------5-5-5-5-5-5-5-5-|
--7-7-7-7-7-7-7-7-2-2-2-2-2-2-2-2-|--2-2-2-2-2-2-2-2-5-5-5-5-5-5-5-5-|
--5-5-5-5-5-5-5-5-2-2-2-2-2-2-2-2-|--2-2-2-2-2-2-2-2-3-3-3-3-3-3-3-3-|
------------------0-0-0-0-0-0-0-0-|--0-0-0-0-0-0-0-0-----------------|


                                                                     
---------------------------------|----------------------------------|
---------------------------------|----------------------------------|
--5-5-5-5-5-5-5-5----------------|------------------7-7-7-7-7-7-7-7-|
--5-5-5-5-5-5-5-5-------0----5-5-|--5-5-5-5-5-5-5-5-7-7-7-7-7-7-7-7-|
--3-3-3-3-3-3-3-3-3-2-3------5-5-|--5-5-5-5-5-5-5-5-5-5-5-5-5-5-5-5-|
--------------------------3--3-3-|--3-3-3-3-3-3-3-3-----------------|


                                                                              
------------------------------------------|----------------------------------|
------------------------------------------|----------------------------------|
--7-7-7-7-7-7-7-7-12-12-12-12-11-11-11-11-|--9-9-9-9-7-7-7-7-9-9-9-9-7-7-7-7-|
--7-7-7-7-7-7-7-7-x--x--x--x--x--x--x--x--|--x-x-x-x-x-x-x-x-x-x-x-x-x-x-x-x-|
--5-5-5-5-5-5-5-5-10-10-10-10-9--9--9--9--|--7-7-7-7-5-5-5-5-7-7-7-7-5-5-5-5-|
------------------------------------------|----------------------------------|


                                                                   
-------------------------------|----------------------------------|
-------------------------------|----------------------------------|
--5----5-5-5-5-----------------|----------5-5-5-5-----------------|
--x----5-5-5-5-5-5-5-5-3-3-3-3-|--2-2-2-2-5-5-5-5-5-5-5-5-3-3-3-3-|
--3----3-3-3-3-5-5-5-5-3-3-3-3-|--2-2-2-2-3-3-3-3-5-5-5-5-3-3-3-3-|
---------------3-3-3-3-1-1-1-1-|--0-0-0-0---------3-3-3-3-1-1-1-1-|


                                                                          
----------------------------------|--------------------------------------|
----------------------------------|--------------------------------------|
----------5-5-5-5-----------------|----------5-5-5-5-12-12-11-11-9-9-7-7-|
--2-2-2-2-5-5-5-5-5-5-5-5-3-3-3-3-|--2-2-2-2-5-5-5-5-x--x--x--x--x-x-x-x-|
--2-2-2-2-3-3-3-3-5-5-5-5-3-3-3-3-|--2-2-2-2-3-3-3-3-10-10-9--9--7-7-5-5-|
--0-0-0-0---------3-3-3-3-1-1-1-1-|--0-0-0-0-----------------------------|


                                         
----------------------------------------|
-----------------12*-------12*-------12*|
--9-9-7-7-5-5-12*---12*-12*---12*-12*---|
--x-x-x-x-x-x---------------------------|
--7-7-5-5-3-3---------------------------|
----------------------------------------|


                                           
------------------------------------------|
---------13*12*----12*-------12*-------12*|
--12*-12*-------12*---12*-12*---12*-12*---|
------------------------------------------|
------------------------------------------|
------------------------------------------|


                                                                     
----------------------------------------|----------------------|---||
---------13*12*----12*-------12*--------|----------------------|---||
--12*-12*-------12*---12*-12*---12*-5-4-|--5-4-7---------------|---||
------------------------------------x-x-|--x-x-x--5------------|---||
------------------------------------3-2-|--3-2-5--5------------|---||
----------------------------------------|---------3------------|---||


Guitar 2
           Intro (00:00)                                         
D#||------|-----------------------------------------|
A#||------|-----------------------------------------|
F#||------|-----------------------------------------|
C#||------|--10-9-7----7----7-7-7----7----7-9-------|
G#||------|---------10---10-------10---10-----10-10-|
D#||------|-----------------------------------------|


                                                              
-----------------------------------------|-------------------|
-----------------------------------------|-------------------|
-----------------------------------------|-------------------|
--10-9-7----7----7-7-7----7----7-9-------|--5----------------|
---------10---10-------10---10-----10-10-|--5----------------|
-----------------------------------------|--3----------------|


                     Verse 1 (00:20)                                  
--------------------|----------------------------------|
--------------------|----------------------------------|
-----------5--------|--------------------------2-2-2-2-|
--2--------5--------|--5-5-5-5-5-5-5-5-5-5-5-5-2-2-2-2-|
--2--------3--------|--5-5-5-5-5-5-5-5-5-5-5-5-0-0-0-0-|
--0-----------------|--3-3-3-3-3-3-3-3-3-3-3-3---------|
                       

                                                                      
----------------------------------|----------------------------------|
----------------------------------|----------------------------------|
------------------5-5-5-5-5-5-5-5-|--------------------------2-2-2-2-|
--2-2-2-2-2-2-2-2-5-5-5-5-5-5-5-5-|--5-5-5-5-5-5-5-5-5-5-5-5-2-2-2-2-|
--2-2-2-2-2-2-2-2-3-3-3-3-3-3-3-3-|--5-5-5-5-5-5-5-5-5-5-5-5-0-0-0-0-|
--0-0-0-0-0-0-0-0-----------------|--3-3-3-3-3-3-3-3-3-3-3-3---------|

                                                                    
--------------------------------|----------------------------------|
--------------------------------|----------------------------------|
------------------5-5-5-5-5-7---|----------------------------------|
--2-2-2-2-2-2-2-2-5-5-5-5-5-7---|--5-5-5-5-5-5-5-5-5-5-5-5-5-5-5-5-|
--2-2-2-2-2-2-2-2-3-3-3-3-3-5---|--5-5-5-5-5-5-5-5-5-5-5-5-5-5-5-5-|
--0-0-0-0-0-0-0-0---------------|--3-3-3-3-3-3-3-3-3-3-3-3-3-3-3-3-|
  m m m m m m m m m m m m m        m m m m m m m m m m m m m m m m

                                                                      
----------------------------------|----------------------------------|
----------------------------------|----------------------------------|
------------------5-5-5-5-5-5-5-5-|----------------------------------|
--2-2-2-2-2-2-2-2-5-5-5-5-5-5-5-5-|--5-5-5-5-5-5-5-5-5-5-5-5-5-5-5-5-|
--2-2-2-2-2-2-2-2-3-3-3-3-3-3-3-3-|--5-5-5-5-5-5-5-5-5-5-5-5-5-5-5-5-|
--0-0-0-0-0-0-0-0-----------------|--3-3-3-3-3-3-3-3-3-3-3-3-3-3-3-3-|
  m m m m m m m m m m m m m m m m    m m m m m m m m m m m m m m m m 

                                                                  
----------------------------------|------------------------------|
----------------------------------|------------------------------|
------------------5-5-5-5-5-5-5-5-|------------------------------|
--2-2-2-2-2-2-2-2-5-5-5-5-5-5-5-5-|--5-5-5--5-5-5--5-5-5--5-5-5--|
--2-2-2-2-2-2-2-2-3-3-3-3-3-3-3-3-|--5-5-5--5-5-5--5-5-5--5-5-5--|
--0-0-0-0-0-0-0-0-----------------|--3-3-3--3-3-3--3-3-3--3-3-3--|
  m m m m m m m m m m m m m m m m    m m    m m    m m    m m

                                                           
---------------------------|------------------------------|
---------------------------|------------------------------|
---------------------------|------------------------------|
--2-2-2--2-2-2-------------|--5-5-5--5-5-5--5-5-5--5-5-5--|
--2-2-2--2-2-2---2----3--2-|--5-5-5--5-5-5--5-5-5--5-5-5--|
--0-0-0--0-0-0-------------|--3-3-3--3-3-3--3-3-3--3-3-3--|
  m m    m m                  m m    m m    m m    m m 

                                 Chorus 1 (00:40)                            
--------------------------------|----------------------------|
--------------------------------|----------------------------|
----------------5-5-5-5-5-5-----|----------------------------|
--2-2-2--2-2-2--5-5-5-5-5-5-----|--------5-5-5-5-5-5-5-5-5-5-|
--2-2-2--2-2-2--3-3-3-3-3-3-3-5-|--------5-5-5-5-5-5-5-5-5-5-|
--0-0-0--0-0-0------------------|--------3-3-3-3-3-3-3-3-3-3-|
  m m    m m    m m m m m m

                                                                      
----------------------------------|----------------------------------|
----------------------------------|----------------------------------|
--7-7-7-7-7-7-7-7-7-7-7-7-7-7-7-7-|----------------------------------|
--7-7-7-7-7-7-7-7-7-7-7-7-7-7-7-7-|--2-2-2-2-2-2-2-2-2-2-2-2-2-2-2-2-|
--5-5-5-5-5-5-5-5-5-5-5-5-5-5-5-5-|--2-2-2-2-2-2-2-2-2-2-2-2-2-2-2-2-|
----------------------------------|--0-0-0-0-0-0-0-0-0-0-0-0-0-0-0-0-|


                                                                 
----------------------------------|-----------------------------|
----------------------------------|-----------------------------|
--5-5-5-5-5-5-5-5-5-5-5-5-5-5-5-5-|-----------------------------|
--5-5-5-5-5-5-5-5-5-5-5-5-5-5-5-5-|-------5-5-5-5-5-5-5-5-5-5-5-|
--3-3-3-3-3-3-3-3-3-3-3-3-3-3-3-3-|-------5-5-5-5-5-5-5-5-5-5-5-|
----------------------------------|-------3-3-3-3-3-3-3-3-3-3-3-|


                                                                      
----------------------------------|----------------------------------|
----------------------------------|----------------------------------|
--7-7-7-7-7-7-7-7-7-7-7-7-7-7-7-7-|----------------------------------|
--7-7-7-7-7-7-7-7-7-7-7-7-7-7-7-7-|--2-2-2-2-2-2-2-2-2-2-2-2-2-2-2-2-|
--5-5-5-5-5-5-5-5-5-5-5-5-5-5-5-5-|--2-2-2-2-2-2-2-2-2-2-2-2-2-2-2-2-|
----------------------------------|--0-0-0-0-0-0-0-0-0-0-0-0-0-0-0-0-|


                                                               
---------------------------|----------------------------------|
---------------------------|----------------------------------|
--5-5-5-5-5-5-5-5-5--------|--------------------------5-5-5-5-|
--5-5-5-5-5-5-5-5-5--------|--5-5-5-5-3-3-3-3-2-2-2-2-5-5-5-5-|
--3-3-3-3-3-3-3-3-3--------|--5-5-5-5-3-3-3-3-2-2-2-2-3-3-3-3-|
---------------------------|--3-3-3-3-1-1-1-1-0-0-0-0---------|


                                                                      
----------------------------------|----------------------------------|
----------------------------------|----------------------------------|
--------------------------5-5-5-5-|------------------5-5-5-5-5-5-5-5-|
--5-5-5-5-3-3-3-3-2-2-2-2-5-5-5-5-|--2-2-2-2-2-2-2-2-5-5-5-5-5-5-5-5-|
--5-5-5-5-3-3-3-3-2-2-2-2-3-3-3-3-|--2-2-2-2-2-2-2-2-3-3-3-3-3-3-3-3-|
--3-3-3-3-1-1-1-1-0-0-0-0---------|--0-0-0-0-0-0-0-0-----------------|


Verse 2 (01:08)                                                                     
----------------------------------|----------------------------------|
----------------------------------|----------------------------------|
----------------------------------|------------------5-5-5-5-5-5-5-5-|
--5-5-5-5-5-5-5-5-5-5-5-5-5-5-5-5-|--2-2-2-2-2-2-2-2-5-5-5-5-5-5-5-5-|
--5-5-5-5-5-5-5-5-5-5-5-5-5-5-5-5-|--2-2-2-2-2-2-2-2-3-3-3-3-3-3-3-3-|
--3-3-3-3-3-3-3-3-3-3-3-3-3-3-3-3-|--0-0-0-0-0-0-0-0-----------------|
  m m m m m m m m m m m m m m m m    m m m m m m m m m m m m m m m m

                                                                      
----------------------------------|----------------------------------|
----------------------------------|----------------------------------|
----------------------------------|------------------5-5-5-5-5-5-5-5-|
--5-5-5-5-5-5-5-5-5-5-5-5-5-5-5-5-|--2-2-2-2-2-2-2-2-5-5-5-5-5-5-5-5-|
--5-5-5-5-5-5-5-5-5-5-5-5-5-5-5-5-|--2-2-2-2-2-2-2-2-3-3-3-3-3-3-3-3-|
--3-3-3-3-3-3-3-3-3-3-3-3-3-3-3-3-|--0-0-0-0-0-0-0-0-----------------|
  m m m m m m m m m m m m m m m m    m m m m m m m m m m m m m m m m

                                                           
------------------------------|---------------------------|
------------------------------|---------------------------|
------------------------------|---------------------------|
--5-5-5--5-5-5--5-5-5--5-5-5--|--2-2-2--2-2-2-------------|
--5-5-5--5-5-5--5-5-5--5-5-5--|--2-2-2--2-2-2---2----3--2-|
--3-3-3--3-3-3--3-3-3--3-3-3--|--0-0-0--0-0-0-------------|
  m m    m m    m m    m m       m m    m m  

                                                                
------------------------------|--------------------------------|
------------------------------|--------------------------------|
------------------------------|----------------5-5-5-5-5-5-----|
--5-5-5--5-5-5--5-5-5--5-5-5--|--2-2-2--2-2-2--5-5-5-5-5-5-----|
--5-5-5--5-5-5--5-5-5--5-5-5--|--2-2-2--2-2-2--3-3-3-3-3-3-3-5-|
--3-3-3--3-3-3--3-3-3--3-3-3--|--0-0-0--0-0-0------------------|
  m m    m m    m m    m m       m m    m m    m m m m m m

Chorus 2 (01:29)                                                              
----------------------------|----------------------------------|
----------------------------|----------------------------------|
----------------------------|--7-7-7-7-7-7-7-7-7-7-7-7-7-7-7-7-|
--------5-5-5-5-5-5-5-5-5-5-|--7-7-7-7-7-7-7-7-7-7-7-7-7-7-7-7-|
--------5-5-5-5-5-5-5-5-5-5-|--5-5-5-5-5-5-5-5-5-5-5-5-5-5-5-5-|
--------3-3-3-3-3-3-3-3-3-3-|----------------------------------|


                                                                      
----------------------------------|----------------------------------|
----------------------------------|----------------------------------|
----------------------------------|--5-5-5-5-5-5-5-5-5-5-5-5-5-5-5-5-|
--2-2-2-2-2-2-2-2-2-2-2-2-2-2-2-2-|--5-5-5-5-5-5-5-5-5-5-5-5-5-5-5-5-|
--2-2-2-2-2-2-2-2-2-2-2-2-2-2-2-2-|--3-3-3-3-3-3-3-3-3-3-3-3-3-3-3-3-|
--0-0-0-0-0-0-0-0-0-0-0-0-0-0-0-0-|----------------------------------|


                                                                 
-----------------------------|----------------------------------|
-----------------------------|----------------------------------|
-----------------------------|--7-7-7-7-7-7-7-7-7-7-7-7-7-7-7-7-|
-------5-5-5-5-5-5-5-5-5-5-5-|--7-7-7-7-7-7-7-7-7-7-7-7-7-7-7-7-|
-------5-5-5-5-5-5-5-5-5-5-5-|--5-5-5-5-5-5-5-5-5-5-5-5-5-5-5-5-|
-------3-3-3-3-3-3-3-3-3-3-3-|----------------------------------|


                                                               
----------------------------------|---------------------------|
----------------------------------|---------------------------|
----------------------------------|--5-5-5-5-5-5-5-5-5--------|
--2-2-2-2-2-2-2-2-2-2-2-2-2-2-2-2-|--5-5-5-5-5-5-5-5-5--------|
--2-2-2-2-2-2-2-2-2-2-2-2-2-2-2-2-|--3-3-3-3-3-3-3-3-3--------|
--0-0-0-0-0-0-0-0-0-0-0-0-0-0-0-0-|---------------------------|


                                                                      
----------------------------------|----------------------------------|
----------------------------------|----------------------------------|
--------------------------5-5-5-5-|--------------------------5-5-5-5-|
--5-5-5-5-3-3-3-3-2-2-2-2-5-5-5-5-|--5-5-5-5-3-3-3-3-2-2-2-2-5-5-5-5-|
--5-5-5-5-3-3-3-3-2-2-2-2-3-3-3-3-|--5-5-5-5-3-3-3-3-2-2-2-2-3-3-3-3-|
--3-3-3-3-1-1-1-1-0-0-0-0---------|--3-3-3-3-1-1-1-1-0-0-0-0---------|


                                                                      
----------------------------------|----------------------------------|
----------------------------------|----------------------------------|
--------------------------5-5-5-5-|--------------------------5-5-5-5-|
--5-5-5-5-3-3-3-3-2-2-2-2-5-5-5-5-|--5-5-5-5-3-3-3-3-2-2-2-2-5-5-5-5-|
--5-5-5-5-3-3-3-3-2-2-2-2-3-3-3-3-|--5-5-5-5-3-3-3-3-2-2-2-2-3-3-3-3-|
--3-3-3-3-1-1-1-1-0-0-0-0---------|--3-3-3-3-1-1-1-1-0-0-0-0---------|


                      Bridge (02:03)                                  
---------------------|----------------------------------|
---------------------|----------------------------------|
--5------------5-----|--7-7-7-7-7-7-7-7-----------------|
--5------------5--5--|--7-7-7-7-7-7-7-7-7-7-7-7-7-7-7-7-|
--3------------3--5--|--5-5-5-5-5-5-5-5-7-7-7-7-7-7-7-7-|
------------------3--|------------------5-5-5-5-5-5-5-5-|
                        m m m m m m m m m m m m m m m m

                                                   
--------------------------------------------------|
--------------------------------------------------|
--10-10-10-10-10-10-10-10-------------------------|
--10-10-10-10-10-10-10-10-10-10-10-10-10-10-10-10-|
--8--8--8--8--8--8--8--8--10-10-10-10-10-10-10-10-|
--------------------------8--8--8--8--8--8--8--8--|
  m  m  m  m  m  m  m  m  m  m  m  m  m  m  m  m

                                                                                
--------------------------------|----------------------------------------------|
--------------------------------|----------------------------------------------|
--7-7-7-7-7--7-7----------------|--10-10-10-10-10--10-10-----------------------|
--7-7-7-7-7--7-7-7--7-7-7-7-7-7-|--10-10-10-10-10--10-10-10--10-10-10-10-10-10-|
--5-5-5-5-5--5-5-7--7-7-7-7-7-7-|--8--8--8--8--8---8--8--10--10-10-10-10-10-10-|
-----------------5--5-5-5-5-5-5-|------------------------8---8--8--8--8--8--8--|
  m m m m    m m    m m m m m m    m  m  m  m      m  m      m  m  m  m  m  m

                                   
----------------------------------|
----------------------------------|
--7-7-7-7-7-7-7-7-----------------|
--7-7-7-7-7-7-7-7-7-7-7-7-7-7-7-7-|
--5-5-5-5-5-5-5-5-7-7-7-7-7-7-7-7-|
------------------5-5-5-5-5-5-5-5-|
  m m m m m m m m m m m m m m m m 

                                                   
--------------------------------------------------|
--------------------------------------------------|
--10-10-10-10-10-10-10-10-------------------------|
--10-10-10-10-10-10-10-10-10-10-10-10-10-10-10-10-|
--8--8--8--8--8--8--8--8--10-10-10-10-10-10-10-10-|
--------------------------8--8--8--8--8--8--8--8--|
  m  m  m  m  m  m  m  m  m  m  m  m  m  m  m  m

                                   
----------------------------------|
----------------------------------|
--7-7-7-7-7-7-7-7-----------------|
--7-7-7-7-7-7-7-7-7-7-7-7-7-7-7-7-|
--5-5-5-5-5-5-5-5-7-7-7-7-7-7-7-7-|
------------------5-5-5-5-5-5-5-5-|
  m m m m m m m m m m m m m m m m 

                                                                        
--------------------------------------------------|--------------------|
--------------------------------------------------|--0--------1--------|
--10-10-10-10-10-10-10-10-10-10-10-10-10-10-10-10-|--0--------1--------|
--10-10-10-10-10-10-10-10-10-10-10-10-10-10-10-10-|--2--------3--------|
--8--8--8--8--8--8--8--8--8--8--8--8--8--8--8--8--|--2--------3--------|
--------------------------------------------------|--0--------1--------|


                                                             
-------------------|--------------------|-------------------|
--0----------------|--0--------1--------|--3----------------|
--0----------------|--0--------1--------|--3----------------|
--2----------------|--2--------3--------|--5----------------|
--2----------------|--2--------3--------|--5----------------|
--0----------------|--0--------1--------|--3----------------|


                                   Chorus 3 (02:38)                           
----------------------------------|--------------------------|
----------------------------------|--------------------------|
--7-7-7-7-7-7-7-7-7-7-7-7-7-7-7-7-|--7-7-7-7-7-7-7-7---------|
--7-7-7-7-7-7-7-7-7-7-7-7-7-7-7-7-|--7-7-7-7-7-7-7-7---------|
--5-5-5-5-5-5-5-5-5-5-5-5-5-5-5-5-|--5-5-5-5-5-5-5-5---------|
----------------------------------|--------------------------|
  m m m m m m m m m m m m m m m m 

                                                                      
----------------------------------|----------------------------------|
----------------------------------|----------------------------------|
------------------7-7-7-7-7-7-7-7-|--7-7-7-7-7-7-7-7-----------------|
--5-5-5-5-5-5-5-5-7-7-7-7-7-7-7-7-|--7-7-7-7-7-7-7-7-2-2-2-2-2-2-2-2-|
--5-5-5-5-5-5-5-5-5-5-5-5-5-5-5-5-|--5-5-5-5-5-5-5-5-2-2-2-2-2-2-2-2-|
--3-3-3-3-3-3-3-3-----------------|------------------0-0-0-0-0-0-0-0-|


                                                                
----------------------------------|----------------------------|
----------------------------------|----------------------------|
------------------5-5-5-5-5-5-5-5-|--5-5-5-5-5-5-5-5-----------|
--2-2-2-2-2-2-2-2-5-5-5-5-5-5-5-5-|--5-5-5-5-5-5-5-5-------5-5-|
--2-2-2-2-2-2-2-2-3-3-3-3-3-3-3-3-|--3-3-3-3-3-3-3-3-------5-5-|
--0-0-0-0-0-0-0-0-----------------|------------------------3-3-|


                                                                      
----------------------------------|----------------------------------|
----------------------------------|----------------------------------|
------------------7-7-7-7-7-7-7-7-|--7-7-7-7-7-7-7-7-----------------|
--5-5-5-5-5-5-5-5-7-7-7-7-7-7-7-7-|--7-7-7-7-7-7-7-7-2-2-2-2-2-2-2-2-|
--5-5-5-5-5-5-5-5-5-5-5-5-5-5-5-5-|--5-5-5-5-5-5-5-5-2-2-2-2-2-2-2-2-|
--3-3-3-3-3-3-3-3-----------------|------------------0-0-0-0-0-0-0-0-|


                                                                   
----------------------------------|-------------------------------|
----------------------------------|-------------------------------|
------------------5-5-5-5-5-5-5-5-|--5----5-5-5-5-----------------|
--2-2-2-2-2-2-2-2-5-5-5-5-5-5-5-5-|--5----5-5-5-5-5-5-5-5-3-3-3-3-|
--2-2-2-2-2-2-2-2-3-3-3-3-3-3-3-3-|--3----3-3-3-3-5-5-5-5-3-3-3-3-|
--0-0-0-0-0-0-0-0-----------------|---------------3-3-3-3-1-1-1-1-|


                                                                      
----------------------------------|----------------------------------|
----------------------------------|----------------------------------|
----------5-5-5-5-----------------|----------5-5-5-5-----------------|
--2-2-2-2-5-5-5-5-5-5-5-5-3-3-3-3-|--2-2-2-2-5-5-5-5-5-5-5-5-3-3-3-3-|
--2-2-2-2-3-3-3-3-5-5-5-5-3-3-3-3-|--2-2-2-2-3-3-3-3-5-5-5-5-3-3-3-3-|
--0-0-0-0---------3-3-3-3-1-1-1-1-|--0-0-0-0---------3-3-3-3-1-1-1-1-|


                                                                      
----------------------------------|----------------------------------|
----------------------------------|----------------------------------|
----------5-5-5-5-7-7-7-7-7-7-7-7-|--7-7-7-7-7-7---------------------|
--2-2-2-2-5-5-5-5-7-7-7-7-7-7-7-7-|--7-7-7-7-7-7-5-5-5-5-3-3-3-3-2-2-|
--2-2-2-2-3-3-3-3-5-5-5-5-5-5-5-5-|--5-5-5-5-5-5-5-5-5-5-3-3-3-3-2-2-|
--0-0-0-0-------------------------|--------------3-3-3-3-1-1-1-1-0-0-|


                                                                      
----------------------------------|----------------------------------|
----------------------------------|----------------------------------|
------5-5-5-5---------------------|------5-5-5-5-----------------5-4-|
--2-2-5-5-5-5-5-5-5-5-3-3-3-3-2-2-|--2-2-5-5-5-5-5-5-5-5-3-3-3-3-x-x-|
--2-2-3-3-3-3-5-5-5-5-3-3-3-3-2-2-|--2-2-3-3-3-3-5-5-5-5-3-3-3-3-3-2-|
--0-0---------3-3-3-3-1-1-1-1-0-0-|--0-0---------3-3-3-3-1-1-1-1-----|


                            
----------------------|---||
----------------------|---||
--5-4-7---------------|---||
--x-x-x--5------------|---||
--3-2-5--5------------|---||
---------3------------|---||
comments
We did not receive enough feedback on this tab! Please rate:
print report bad tab
1 2 3 4 5
I want to post or [tab]
guest
You may want to rate the tab now too:
select rating
Please do not post tabs as comments. Select "correction" instead!