Oops, an error
Loading. Please wait.

Underground Tab

by Gob
ver1
ver1

Whole song

Interactive

More versions @911Tabs.com
8,354 views 15 this week
5 commentsread comments
1 2 3 4 5
excellent!
x 5
Autoscroll
+/-
esc
set tempo
stop
Contributor
Tuning
C G C F A D
Hey! There's an official Ultimate Guitar app which is ideal
for learning songs when you're away from computer. Get the app
WARNING: You are trying to view
                                    content from Ultimate-Guitar.com
                                    in an unauthorized application,
                                    which is prohibited.

                                    Please use an official Ultimate
                                    Guitar Tabs application for iPhone,
                                    iPad or Android to access legitimate
                                    chords, guitar, bass, and drum tabs
                                    from Ultimate-Guitar.com database.

                                    Type "ultimate guitar tabs" in Apple
                                    App Store's or Android Market's
                                    search to find the application.
------------------------------------------------------------------
                          Underground - Gob
------------------------------------------------------------------
Tabbed by: Pete_KC
Email: pete8---@hotmail.com

Tuning: Drop C (CGCFAD)

  Gtr 1
D|-----------------------------------------|
A|-----------------------------------------|
F|---7---9---10---9---7---14---15---12-----|2X
C|-----0---0----0---0---0----0----0----0---|
G|-----------------------------------------|
C|-----------------------------------------|

 Gtr 1
|-----------------------------------------|
|-----------------------------------------|
|---7---9---10---9---7---14---15---12-----|
|-----0---0----0---0---0----0----0----0---|
|-----------------------------------------|
|-----------------------------------------|
|
|Gtr 2
|-----------------------------------------|
|-----------------------------------------|
|-----------------------------------------|
|-----------------------------------------|
|---0---0---0---0---0---0---0---0---------|
|---0---0---0---0---0---0---0---0---------|
    -   -   -   -   -   -   -   -

 Gtr 1
|-----------------------------------------|
|-----------------------------------------|
|---7---9---10---9---7---14---15---12-----|
|-----0---0----0---0---0----0----0----0---|
|-----------------------------------------|
|-----------------------------------------|
|
|Gtr 2
|-----------------------------------------|
|-----------------------------------------|
|-----------------------------------------|
|-----------------------------------------|
|---0---0---0---0---0---8-7-8-------------|
|---0---0---0---0---0---------7-8-10------|
    -   -   -   -   -   

 Gtr 1
|-----------------------------------------|
|-----------------------------------------|
|---7---9---10---9---7---14---15---12-----|
|-----0---0----0---0---0----0----0----0---|
|-----------------------------------------|
|-----------------------------------------|
|
|Gtr 2
|-----------------------------------------|
|-----------------------------------------|
|-----------------------------------------|
|-----------------------------------------|
|---0---0---0---0---0---0---0---0---------|
|---0---0---0---0---0---0---0---0---------|
    -   -   -   -   -   -   -   -

 Gtr 1
|-----------------------------------------|
|-----------------------------------------|
|---7---9---10---9---7---14---15---12-----|
|-----0---0----0---0---0----0----0----0---|
|-----------------------------------------|
|-----------------------------------------|
|
|Gtr 2
|-----------------------------------------|
|-----------------------------------------|
|-----------------------------------------|
|-----------------------------------------|
|---0---0---0---0---0---8p0-----8h10------|
|---0---0---0---0---0-------8p0-----------|
    -   -   -   -   -   

 Gtr 1 & 2
|---------------------------|---------------------------|
|---------------------------|---------------------------|
|---------------------------|---------------------------|
|---------------------------|---------------------------|
|---0--0--0--0--0--0--0--0--|--3--3--3--3--3--3--3--3---|
|---0--0--0--0--0--0--0--0--|--3--3--3--3--3--3--3--3---|
    -  -  -  -  -  -  -  -     -  -  -  -  -  -  -  -

 Gtr 1
|---------------------------|------------------------------|
|---------------------------|------------------------------|
|---------------------------|------------------------------|
|---------------------------|------------------------------|
|---0--0--0--0--0--0--0--0--|--8--8--8--8--8--8--8--8------|
|---0--0--0--0--0--0--0--0--|--8--8--8--8--8--8--8--8------|
|   -  -  -  -  -  -  -  -     -  -  -  -  -  -  -  -  
|Gtr 2
|---------------------------|------------------------------|
|---------------------------|------------------------------|
|---------------------------|------------------------------|
|---------------------------|------------------------------|
|---0--0--0--0--0--0--0--0--|--8--8--8--8--8--8-7-8--------|
|---0--0--0--0--0--0--0--0--|--8--8--8--8--8--------7-8-10-|
    -  -  -  -  -  -  -  -     -  -  -  -  -
 Gtr 1
|---------------------------|------------------------------|
|---------------------------|------------------------------|
|---------------------------|------------------------------|
|---------------------------|------------------------------|
|---0--0--0--0--0--0--0--0--|--3--3--3--3--3--3--3--3------|
|---0--0--0--0--0--0--0--0--|--3--3--3--3--3--3--3--3------|
|   -  -  -  -  -  -  -  -     -  -  -  -  -  -  -  -
|Gtr 2
|---------------------------|------------------------------|
|---------------------------|------------------------------|
|---------------------------|------------------------------|
|---------------------------|------------------------------|
|---0--0--0--0--0--0--0--0--|--3--3--3--3--3--8p0-----8h10-|
|---0--0--0--0--0--0--0--0--|--3--3--3--3--3------8p0------|
    -  -  -  -  -  -  -  -     -  -  -  -  -
 Gtr 1
|-------------------------------|---------------------------|
|-------------------------------|---------------------------|
|-------------------------------|---------------------------|
|-------------------------------|-----------------10----7---|
|---0--0--0--0--0--0--0--0------|--8--8--8--8--8--10----7---|
|---0--0--0--0--0--0--0--0------|--8--8--8--8--8--10----7---|
|   -  -  -  -  -  -  -  -         -  -  -  -  -
|Gtr 2
|-------------------------------|---------------------------|
|-------------------------------|---------------------------|
|-------------------------------|---------------------------|
|-------------------------------|-----------------10----7---|
|---0--0--0--0--0--8p7h8--------|--8--8--8--8--8--10----7---|
|---0--0--0--0--0--------7-8-10-|--8--8--8--8--8--10----7---|
    -  -  -  -  -                  -  -  -  -  -

 Gtr 1 & 2
|--------------------------|-----------------------------|
|--------------------------|-----------------------------|
|---------7----------------|-----------------------------|
|---------7----------------|-----------------------------|
|---0--0--5---8--8--8--7---|--0--0--0--0--3--3--5--5-----|
|---0--0------8--8--8--7---|--0--0--0--0--3--3--5--5-----|\
|                                                         2X
|--------------------------|-----------------------------|/
|--------------------------|-----------------------------|
|---------7----------------|-----------------------------|
|---------7----------------|-----------------------------|
|---0--0--5---8--8--8--10--|--7--7--7--7--8--8--10--10---|
|---0--0------8--8--8--10--|--7--7--7--7--8--8--10--10---|

 Gtr 1
|-----------------------------------------|
|-----------------------------------------|
|-----------------------------------------|
|-----------------------------------------|
|-----------------------------------------|
|---0-0-8-7-0-0-7-5-0-0-5-3-2-2-3-5-------|
|
|Gtr 2                                      2X
|-----------------------------------------|
|-----------------------------------------|
|-----------------------------------------|
|-----------------------------------------|
|---0-------0-------0-------0-------------|
|---0-------0-------0-------0-------------|
    -       -       -       -

 Gtr 1
|-----------------------------------------|
|-----------------------------------------|
|-----------------------------------------|
|-----------------------------------------|
|-----------------------------------------|
|---0-0-8-7-0-0-7-5-0-0-5-3-2-2-3-5-------|
|
|Gtr 2                                      2X
|-----------------------------------------|
|-----------------------------------------|
|-----------------------------------------|
|---0-0-12-10-0-0-10-8-0-0-8-7-5-5-7-8----|
|-----------------------------------------|
|-----------------------------------------|
  
 Gtr 1
|---------------------------|------------------------------|
|---------------------------|------------------------------|
|---------------------------|------------------------------|
|---------------------------|------------------------------|
|---0--0--0--0--0--0--0--0--|--3--3--3--3--3--3--3--3------|
|---0--0--0--0--0--0--0--0--|--3--3--3--3--3--3--3--3------|
|   -  -  -  -  -  -  -  -     -  -  -  -  -  -  -  -
|Gtr 2
|---------------------------|------------------------------|
|---------------------------|------------------------------|
|---------------------------|------------------------------|
|---------------------------|------------------------------|
|---0--0--0--0--0--0--0--0--|--3--3--3--3--3--8-7-8--------|
|---0--0--0--0--0--0--0--0--|--3--3--3--3--3--------7-8-10-|
    -  -  -  -  -  -  -  -     -  -  -  -  -

 Gtr 1
|---------------------------|------------------------------|
|---------------------------|------------------------------|
|---------------------------|------------------------------|
|---------------------------|----------------7-----7-------|
|---0--0--0--0--0--0--0--0--|--8--8--8--8----7-----7-------|
|---0--0--0--0--0--0--0--0--|--8--8--8--8----7-----7-------|
|   -  -  -  -  -  -  -  -     -  -  -  -
|Gtr 2
|---------------------------|------------------------------|
|---------------------------|------------------------------|
|---------------------------|------------------------------|
|---------------------------|----------------7-----7-------|
|---0--0--0--0--0--0--0--0--|--8--8--8--8----7-----7-------|
|---0--0--0--0--0--0--0--0--|--8--8--8--8----7-----7-------|
    -  -  -  -  -  -  -  -     -  -  -  -
 Gtr 1
|------------------------------------|---------------------------------|
|------------------------------------|---------------------------------|
|------------------------------------|---------------------------------|
|---------0--------------------------|--------3------------------------|
|---0--0--0--0--0--8p0-----8h10------|--3--3--3--3--3--8-7-8-----------|
|---0--0--0--0--0------8p0-----------|--3--3--3--3--3--------7-8-10----|
|   -  -     -  -                       -  -     -  -
|Gtr 2
|--17------18------17------18--------|-17------18------17------18------|
|----181518--181518--181518--181518--|---181518--181518--181518--181517|
|------------------------------------|---------------------------------|
|------------------------------------|---------------------------------|
|------------------------------------|---------------------------------|
|------------------------------------|---------------------------------|

 Gtr 1
|------------------------------------|---------------------------------|
|------------------------------------|---------------------------------|
|------------------------------------|---------------------------------|
|---------0-----------0--------------|------------------10\------------|
|---0--0--0--0--0--0--0--0-----------|--8--8--8--8--8---10\------------|
|---0--0--0--0--0--0--0--0-----------|--8--8--8--8--8---10\------------|
|   -  -     -  -  -     -              -  -  -  -  -
|Gtr 2
|--17------18------17------18--------|-17------18------17------18------|
|----181518--181518--181518--181518--|---181518--181518--181518--181517|
|------------------------------------|---------------------------------|
|------------------------------------|---------------------------------|
|------------------------------------|---------------------------------|
|------------------------------------|---------------------------------|

 Gtr 1 & 2
|--------------------------|-----------------------------|
|--------------------------|-----------------------------|
|---------7----------------|-----------------------------|
|---------7----------------|-----------------------------|
|---0--0--5---8--8--8--7---|--0--0--0--0--3--3--5--5-----|
|---0--0------8--8--8--7---|--0--0--0--0--3--3--5--5-----|\
|                                                         2X
|--------------------------|-----------------------------|/
|--------------------------|-----------------------------|
|---------7----------------|-----------------------------|
|---------7----------------|-----------------------------|
|---0--0--5---8--8--8--10--|--7--7--7--7--8--8--10--10---|
|---0--0------8--8--8--10--|--7--7--7--7--8--8--10--10---|


  Gtr 1
|---22-tremolo-picking--------------------|
|-----------------------------------------|
|-----------------------------------------|
|-----------------------------------------|
|-----------------------------------------|
|-----------------------------------------|
|
|Gtr 2
|-----------------------------------------|
|-----------------------------------------|
|---10-10-10--5-5-5--3-3-3--7-7-7---------|
|-----------------------------------------|
|----8--8--8--3-3-3--1-1-1--5-5-5---------|
|-----------------------------------------|

 Gtr 1  
|-22-22-20-22-22-20-22-20----20-22-22-20-22-22-20-22-20----20-22-22-20-22-|
|-------------------------22----------------------------22----------------|
|-------------------------------------------------------------------------|
|-------------------------------------------------------------------------|
|-------------------------------------------------------------------------|
|-------------------------------------------------------------------------|
|
|Gtr 2
|-------------------------------------------------------------------------|
|-------------------------------------------------------------------------|
|--10--10--10------------------5---5---5--------------------3---3---3-----|
|-------------------------------------------------------------------------|
|---8---8---8------------------3---3---3--------------------1---1---1-----|
|-------------------------------------------------------------------------|
|
|Gtr 1
|--22-20-22-20----20-22-22----|
|--------------22-------------|
|-----------------------------|
|-----------------------------|
|-----------------------------|
|-----------------------------|
|
|Gtr 2
|-----------------------------|
|-----------------------------|
|------7---7---7--------------|
|-----------------------------|
|------5---5---5--------------|
|-----------------------------|

 Gtr 1
|-15-15-15-15-15-15-15-15-17-17-17-17-17-17-20-20-20-20-20-17-17-17-20-20-|
|-------------------------------------------------------------------------|
|-------------------------------------------------------------------------|
|-------------------------------------------------------------------------|
|-------------------------------------------------------------------------|
|-------------------------------------------------------------------------|
|
|Gtr 2
|-------------------------------------------------------------------------|
|-------------------------------------------------------------------------|
|--10--10--10------------------5---5---5--------------------3---3---3-----|
|-------------------------------------------------------------------------|
|---8---8---8------------------3---3---3--------------------1---1---1-----|
|-------------------------------------------------------------------------|
|
|Gtr 1
|--20-17-17-20-20-15-17-20----|
|-----------------------------|
|-----------------------------|
|-----------------------------|
|-----------------------------|
|-----------------------------|
|
|Gtr 2
|-----------------------|
|-----------------------|
|------7---7---7--------|
|-----------------------|
|------5---5---5--------|
|-----------------------|

 Gtr 1 This part is not right... I couldn’t figure it out so I just put
       anything
|-13-13-13-15-15-15-17-17-17-12-12-12-13-13-13-15-15-15-10-10-10-12-12-12-|
|-------------------------------------------------------------------------|
|-------------------------------------------------------------------------|
|-------------------------------------------------------------------------|
|-------------------------------------------------------------------------|
|-------------------------------------------------------------------------|
|
|Gtr 2
|-------------------------------------------------------------------------|
|-------------------------------------------------------------------------|
|--10--10--10------------------5---5---5--------------------3---3---3-----|
|-------------------------------------------------------------------------|
|---8---8---8------------------3---3---3--------------------1---1---1-----|
|-------------------------------------------------------------------------|
|
|Gtr 1
|--13-13-13-8-8-12-5-5--------|
|-----------------------------|
|-----------------------------|
|-----------------------------|
|-----------------------------|
|-----------------------------|
|
|Gtr 2
|-----------------------------|
|-----------------------------|
|------7---7---7--------------|
|-----------------------------|
|------5---5---5--------------|
|-----------------------------|

Gtr 1 & 2
|-----------------------------------------|
|-----------------------------------------|
|-----------------------------------------|2X
|-----------------------------------------|
|-----------------------------------------|
|---0-0-8-7-0-0-7-5-0-0-5-3-2-2-3-5-------|

Gtr 1
|-----------------------------------------|
|-----------------------------------------|
|-----------------------------------------|
|-----------------------------------------|
|-----------------------------------------|
|---0-0-8-7-0-0-7-5-0-0-5-3-2-2-3-5-------|
|
|Gtr 2                                      2X
|-----------------------------------------|
|-----------------------------------------|
|-----------------------------------------|
|---0-0-12-10-0-0-10-8-0-0-8-7-5-5-7-8----|
|-----------------------------------------|
|-----------------------------------------|

 Gtr 1
|---------------------------------------|
|---------------------------------------|
|---------------------------------------|
|---------------------------------------|
|---------------------------------------|
|---0-8-7-5-7~--0-8-7-0-7-5-3-5---------|
|
|Gtr 2
|---------------------------------------|
|---------------------------------------|
|---------------------------------------|
|---------------------------------------|
|---------------------------------------|
|-0-12-10-8-10~--0-12-10-0-10-8-7-8-----|

Gtr 1
|---------------------------------------|
|---------------------------------------|
|---------------------------------------|
|---------------------------------------|
|---------------------------------------|
|---0-8-7-5-7~--0-8-7-0-7-5-3-5---------|
|
|Gtr 2
|---------------------------------------|
|---------------------------------------|
|---------------------------------------|
|---------------------------------------|
|---------------------------------------|
|-0-15-14-12-14~--0-15-14-0-14-12-10-12-|

Gtr 1
|---------------------------------------|
|---------------------------------------|
|---------------------------------------|
|---------------------------------------|
|---------------------------------------|
|---0-8-7-5-7~--0-8-7-0-7-5-3-5---------|
|
|Gtr 2
|---------------------------------------|
|---------------------------------------|
|---------------------------------------|
|---------------------------------------|
|---------------------------------------|
|-0-17-15-14-15~--0-17-15-0-15-14-12-14-|

Gtr 1
|---------------------------------------|
|---------------------------------------|
|---------------------------------------|
|---------------------------------------|
|---------------------------------------|
|---0-8-7-5-7~--0-8-7-0-7-5-3-5---------|
|
|Gtr 2
|---------------------------------------|
|---------------------------------------|
|---------------------------------------|
|---------------------------------------|
|---------------------------------------|
|-0-15-14-12-14~--0-15-14-0-14-12-10-12-|

 Gtr 1
|------------------------------------|
|------------------------------------|
|--7-7-7-7-7-7-7-7-7-7-7-7-9-9-9-9---|
|------------------------------------|
|------------------------------------|
|------------------------------------|
|
|Gtr 2
|------------------------------------|
|------------------------------------|
|------------------------------------|
|------------------------------------|
|------------------------------------|
|--12-12-0-0-8-8-0-0-7-7-0-0-5-5-0-0-|

 Gtr 1
|--------------------------------------------|
|--------------------------------------------|
|--10-10-10-10-12-12-12-12-13-13-13-13-14~---|
|--------------------------------------------|
|--------------------------------------------|
|--------------------------------------------|
|
|Gtr 2
|--------------------------------------------|
|--------------------------------------------|
|--------------------------------------------|
|----------------------------5---------------|
|----------------------------5---------------|
|--12-12-0-0-3-3-0-0-8-8-0-0-5---------------|

 Gtr 1
|--------------------------------10-12-12b---|
|-----------------11----11-13-11-------------|
|--10-12-14-12-14----14----------------------|
|--------------------------------------------|
|--------------------------------------------|
|--------------------------------------------|
|
|Gtr 2
|--------------------------------------------|
|--------------------------------------------|
|--------------------------------------------|
|--------------------------------------------|
|--12-12--12-8-8--8-7-8-7-3-5----------------|
|--12-12--12-8-8--8-7-8-7-3-5----------------|

 Gtr 1
|---(12)------------------------|
|-------------------------------|
|-------------------------------|
|-------------------------------|
|-------------------------------|
|-------------------------------|
|
|Gtr 2
|-------------------------------|
|-------------------------------|
|-------------------------------|
|-------------------------------|
|--12-----8-----7-----5-----3---|
|--12-0-0-8-0-0-7-0-0-5-0-0-3---|


 Gtr 1 & 2   
|--------------------------|-----------------------------|
|--------------------------|-----------------------------|
|--------------------------|-----------------------------|
|--------------------------|-----------------------------|
|--0--0-----------------7--|--0--0--0--0--3--3--5--5-----|
|--0--0-----------------7--|--0--0--0--0--3--3--5--5-----|
|
|--------------------------|-----------------------------|
|--------------------------|-----------------------------|
|---------7----------------|-----------------------------|
|---------7----------------|-----------------------------|
|---0--0--5---8--8--8--10--|--7--7--7--7--8--8--10--10---|
|---0--0------8--8--8--10--|--7--7--7--7--8--8--10--10---|

|--------------------------|-----------------------------|
|--------------------------|-----------------------------|
|---------7----------------|-----------------------------|
|---------7----------------|-----------------------------|
|---0--0--5---8--8--8--7---|--0--0--0--0--3--3--5--5-----|
|---0--0------8--8--8--7---|--0--0--0--0--3--3--5--5-----|\
|                                                         3X
|--------------------------|-----------------------------|/
|--------------------------|-----------------------------|
|---------7----------------|-----------------------------|
|---------7----------------|-----------------------------|
|---0--0--5---8--8--8--10--|--7--7--7--7--8--8--10--10---|
|---0--0------8--8--8--10--|--7--7--7--7--8--8--10--10---|

 Gtr 1 & 2
|-----------|---------|
|-----------|---------|
|-----------|---7-----|
|-----------|---------|
|-----------|---5-----|
|-----------|---------|

|--------------------------------------|
|--------------------------------------|
|---10-10-10---5-5-5---3-3-3---7-7-7---|
|--------------------------------------|4X
|----8--8--8---3-3-3---1-1-1---5-5-5---|
|--------------------------------------|

 Gtr 1
|--------------------------------------|
|--------------------------------------|
|---10-10-10---5-5-5---3-3-3---7-7-7---|
|--------------------------------------|
|----8--8--8---3-3-3---1-1-1---5-5-5---|
|--------------------------------------|
|
|Gtr 2                                  4X
|--------------------------------------|
|---10-10-10---5-5-5---3-3-3---6-6-6---|
|---10-10-10---5-5-5---3-3-3---7-7-7---|
|--------------------------------------|
|----8--8--8---3-3-3---1-1-1---5-5-5---|
|--------------------------------------|

At the end its just sliding up and down the neck on the E and A string.

-  palm mute
p  pull off
h  hammer on
\  slide down
/  slide up
comments
print report bad tab
5 comments total. Showing first comments.
0 reply
billytalentROKS wrote on March 23 2008, 09:58 pm

this is pretty good

0 reply
billytalentROKS wrote on March 27 2008, 06:19 pm

please tab were all dying

0 reply
Huffman wrote on October 6 2008, 06:08 pm

this shit look all decent

I want to post or [tab]
guest
You may want to rate the tab now too:
select rating
Please do not post tabs as comments. Select "correction" instead!