Oops, an error
Loading. Please wait.

Awake Bass Tab

ver1
ver1

Album

Whole song

More versions @911Tabs.com
5,276 views 3 this week
no commentswrite comment
1 2 3 4 5
accurate
x 3
Autoscroll
+/-
esc
set tempo
stop
Contributor
WARNING: You are trying to view
                                    content from Ultimate-Guitar.com
                                    in an unauthorized application,
                                    which is prohibited.

                                    Please use an official Ultimate
                                    Guitar Tabs application for iPhone,
                                    iPad or Android to access legitimate
                                    chords, guitar, bass, and drum tabs
                                    from Ultimate-Guitar.com database.

                                    Type "ultimate guitar tabs" in Apple
                                    App Store's or Android Market's
                                    search to find the application.
Band- Godsmack
Album- Awake

Track Listings:
1.Sick Of Life
2.Awake
3.Greed
4.Bad Magick
5.Goin' Down
6.Mistakes
7.Trippin'
8.Forgive Me
9.Vampires
10.The Journey
11.Spiral

--------------------------------------------------------

1.SICK OF LIFE

Tuning for 4 string: C-G-C-F

 r    Strike Then Bend String Down And Release
 ~    Let Ring
 /    Slide Up
 \    Slide Down
 ( )  Note to land on without striking

  Part (a)
F:-----------------------------------------------|
C:-----------------------------------------------|
G:-----------------------------------------------|
C:--3r--0--0--0--5r--0--0--8r--0----0--3r--0--0--|


  Part (b)               Play 6 times
F:--------------------------------------------------|
C:--------------------------------------------------|
G:--------------------------------------------------|
C:--0--3r--0--0--0--5r--0--0--8r--0----0--3r--0--0--|

  Part (c)
F:-----------------------------------------|
C:-----------------------------------------|
G:-----------------------------------------|
C:--0--3r--0--0--0--5r--0--0--8r--0--0--0--|


Play Part (a)
Play Part (b) 2 times


  Part (d)
F:----------------------------------------|
C:----------------------------------------|
G:----------------------------------------|
C:--0--3r--0--0--0--5r--0--0--8r--0--0----|


Play Part (a)
Play Part (b) 2 times


  Part (e)
F:--------------------------------------------|
C:--------------------------------------------|
G:--------------------------------------------|
C:--0--3r--0--0--0--5r--0--0--8r--0--0--0--0--|

  Part (f)
F:-----------------------------|
C:-----------------------------|
G:-----------------------------|
C:--3r--0--0--0--5r--0--0--0---|

  Part (g)
F:------------------------------------------------------|
C:------------------------------------------------------|
G:------------------------------------------------------|
C:--3r--0--0--0--5r--0--0--8r--0--0----0--3r--0--3r--0--|


Play Part (f)
Play part (g)

  Part (h)
F:-------------------------|
C:-------------------------|
G:--6--6-------------------|
C:--------3r--0--0--0~-----|

  Part (i)
F:---------------------------------------------|
C:---------------------------------------------|
G:--6--6---------------------------------------|
C:--------3r--0--0--8r--0--0--0--3r--0--3r--0--|


Play Part (h)
Play Part (i)


  Part (j)           Play 3 times
F:--------------------------------|
C:--------------------------------|
G:--------------------------------|
C:--0--5--5\6--8--6--6/(5)--0--0--|

  Part (k)
F:-------------------|
C:-------------------|
G:-------------------|
C:--0--5--5\6--8--6--|


Play Part (a)
Play Part (b) 2 times
Play Part (e)
Play Part (f)
Play part (g)
Play Part (f)
Play part (g)
Play Part (h)
Play Part (i)
Play Part (h)
Play Part (i)
Play Part (j) 3 times
Play Part (k)
Play Part (a)
Play Part (b) 2 times
Play part (d)
Play Part (a)
Play Part (b) 3 times


Play 4 times
F:--------------------------------------|
C:--------------------------------------|
G:--6-----------------------------------|
C:--------------------------------------|

I'm not 100% possitive if it's, 6 on the
G string in regards to the tabs above and
below. Oh well? Maybe an open C?


Play 3 times [very low in background]
F:--------------------------------------|
C:--------------------------------------|
G:--6~----------------------------------|
C:------[0--3--0--5--0--0--3--0--3--0]--|

F:--------------------------------------|
C:--------------------------------------|
G:--6-6-6-6-6-6-6-6-6-6-6-6-6-6-6-6-----|
C:--------------------------------------|


Play Part (j) 4 times
Play Part (b) 3 times


F:-------------------------------|
C:-------------------------------|
G:-------------------------------|
C:--0--3r--0--0--0--5r--0--0--8--|

Play Part (a)
Play Part (b) 2 times
Play Part (d)
Play Part (a)
Play Part (b) 2 times


F:-----------------------------------------|
C:-----------------------------------------|
G:-----------------------------------------|
C:--0--3r--0--0--0--5r--0--0--8r--0--0--0--|


Play Part (f)
Play part (g)
Play Part (f)

2.AWAKE

Part (a)  4 times
F:-----------------------------------------------------------|
C:-----------------------------------------------------------|
G:------------------------------1----1--1--------------------|
C:-0----0--0--0----0--0--0--0---------------1----1--1--1--1--|


Part (b)  4 times
F:---------------|
C:---------------|
G:---------------|
C:-0----0--0--0--|

F:-----|
C:-----|
G:-----|
C:--2--|

Part (c)  3 times
F:----------------------------------|
C:----------------------------------|
G:-----------------5----6--6--6--6--|
C:-0----0--0--0---------------------|


Part (d)
F:----------------------------------|
C:----------------------------------|
G:-----------------5----8--8--8--8--|
C:-0----0--0--0---------------------|

Play Part (c) 2 times


Part (e)
F:----------------------------------|
C:----------------------------------|
G:-----------------5----6--6--6--8~~|
C:-0----0--0--0---------------------|


Part (f)   2 times
F:------------------------------------------------------|
C:------------------------------------------------------|
G:-----------------------------------------1\6----------|
C:--0----0------0----0------0----0------1--------6\(8)--|

Play Part (a) 4 times

Play Part (b) 4 times

F:-----|
C:-----|
G:-----|
C:--2--|

Play Part (c) 3 times
Play Part (d) 1 time
Play Part (c) 2 times

F:------------------------------------------|
C:------------------------------------------|
G:-----------------5----6--6--6--8----8--8--|
C:-0----0--0--0-----------------------------|

Play Part (f) 2 times

Play Part (a) 7 times


F:-----|
C:-----|
G:-----|
C:--0--|

Part (g)  17 times.
F:--------------------------------------|
C:--------------------------------------|
G:--------------------------------------|
C:-0--0--0--0----0--0--0--0--0----0--0--|

Part (h)
F:--------------------------------------------------|
C:------------------------------1----1--1-----------|
G:--------------------6-----------------------------|
C:--1----1----1--1\6-------1------------------1--1--|

Play Part (g) 1 time

Part (i)  Play 2 times
F:------------------------|
C:------------------------|
G:--------------------6---|
C:--1----1----1--1\6------|


Part (j)
F:--------------------------------------------------|
C:--------------------------------------------------|
G:--------------------------------------------------|
C:--5--5--5--5--5--5--5--5--5--5--5--5--5--5--5--0--|


Play Part (g) 8 times

Play Part (i) 2 times

Play Part (g) 2 times

Play Part (i) 2 times


F:--------------------------------------------------|
C:--------------------------------------------------|
G:--------------------------------------------------|
C:--5--5--5--5--5--5--5--5--5--5--5--5--5--5--5-----|


Play Part (a) 8 times

Play Part (g) 4 times

3.GREED

Tune E down to C

Verse                                            x3
G|----------------------------------------------|
D|----------------------------------------------|
A|----------------------------------------------|
C|-0--2-0-0-0--2-0-0-0-0--0-0-2-0-0-0--0--0-3-5-|

G|------------------------------------|
D|------------------------------------|
A|------------------------------------|
C|-2--3-2-2-2--3-2-2-2-2--2-2-3-2-2-2-|


Chorus
G|---------------------------------|
D|---------------------------------|
A|---------------------------------|
C|-0---12-10-12-10-10-10-10-10-8-7-|
                                      x2
G|-----------------------------------|
D|-----------------------------------|
A|-----------------------------------|
C|-0---12-10-12-10-10-10-10-10-10-15-|

G|----------------------------------|
D|----------------------------------|
A|----------------------------------|
C|-0h10---10--10--10-10-10-10-10-12-|


Verse2                                           x5
G|----------------------------------------------|
D|----------------------------------------------|
A|----------------------------------------------|
C|-0--2-0-0-0--2-0-0-0-0--0-0-2-0-0-0--0--0-3-5-|

G|------------------------------------|
D|------------------------------------|
A|------------------------------------|
C|-2--3-2-2-2--3-2-2-2-2--2-2-3-2-2-2-|


Interlude                        x3
G|------------------------------|
D|------------------------------|
A|------------------------------|
C|-\0*---17-17-17-17-17-15\0*---|

G|------------------------|
D|------------------------|
A|------------------------|
C|-0--0--0--0--x-0-0-0*---|
                                                 x4
G|----------------------------------------------|
D|----------------------------------------------|
A|----------------------------------------------|
C|-0--2-0-0-0--2-0-0-0-0--0-0-2-0-0-0--0--0-3-5-|


Outro
G|----------------------------------------------|
D|----------------------------------------------|
A|----------------------------------------------|
C|-0--2-0-0-0--2-0-0-0-0--0-0-2-0-0-0--0--0-3-5-|

G|------------------------------------|
D|------------------------------------|
A|------------------------------------|
C|-2--3-2-2-2--3-2-2-2-2--2-2-3-2-2-2-|

structure:
Verse x2
Chorus x2
Verse2
Chorus x4
Interlude
Chorus x4
Outro

4.BAD MAGICK

Intro/Chorus
Repeat Serveral Times
G|--------------------------------------------------------------|
D|--------------------------------------------------------------|
A|--------4-4-4-4-4-4-4-4-4-4-4-4-------4-4-4-5-4-4-4-6-4-4-4-4-|
D|--5-6-4-------------------------5-6-4-------------------------|

Verse
Repeat Serveral Times
G|---------------------|
D|---------------------|
A|---------------------|
D|--3-4-2p-3-4~-3-4-2--|p

Bridge After First Chorus
Repeat Serveral Times
G|-----------|
D|-----------|
A|-----------|
D|--2-2-2-4~-|

Bridge After Second Chorus (Part 1)
Repeat Serveral Times
G|---------------|
D|---------------|
A|---------------|
D|--[2~]-2h2h2h3-|

Bridge After Second Chorus(Part2)
Repeat Serveral Times
G|--------------------------------|
D|--------------------------------|
A|--------------------------------|
D|--2-2-2-3-2-2-2-3-2-2-2-3-2-----|(5)

Bridge After Second Chorus (Part3)
G|--------------------------------------------------------------------------------------------------------------------------|
D|--------------------------------------------------------------------------------------------------------------------------|
A|--------------------------------------------------------------------------------------------------------------------------|
D|--1/(3)-2-2-2-3-2-2-2-3-2-2-2-3-2/(7)-2-2-2-3-2-2-2-3-2-2-2-3-5\(1)-2-2-2-3-2-2-2-3-2-2-2-3-2/(4)-p2p2p2p2p2-5-5-5-5-5-5--|

5.GOIN' DOWN

Intro

G|----------------|
D|----------------|
A|-----O-5-3------|
D|-O--5------5-3--|    repeat until guitar is playing alone

during guitar thing slide low d string from fret 5

Chorus

G|----------------|
D|----------------|
A|-----O-5-3------|
D|-O--5------5-3--|

G|-----------------------------------------------------------------|
D|-----------------------------------------------------------------|
A|-----O-5-3-------5-5555555--3-3333333--2-2222222-1-1111111-------|
D|-O--5------5-3---------------------------------------------------|

G|-----------------------------------------------------------------|
D|-----------------------------------------------------------------|
A|-----O-5-3-------5-5555555--8-88888888--7-7777777-6-6666666------|
D|-O--5------5-3---------------------------------------------------|

6.MISTAKES

G:------------------------------------------------------|
D:------------------------------------------------------|
A:------------------------------------------------------|
E:--13--10--11--10--8-10--11--10------10--13--10--11--8-|

then im not sure what it does but its somthing like this...
im too lazy to figure it out lol

G:-----------------------|
D:-----------------------|
A:-----------------------|
E:---0001-0--0001--------|

7.TRIPPIN'

Tuning-FCGC

F||----------------------------------------|
C||----------------------------------------|
G||---------------------------    about 16-|x till the chorus comes along.
C||---00-00-00-00-2232---------------------|

||-----------------------------|
||-----------------------------|
||-----------------------------|  4x
||---33-33-33-11-4444----------|

||--------------------------------------|
||--------------------------------------|
||--------------------------------------|
||--0-------5—6-----0-------5—4---------|

||---------------------------|
||---------------------------|
||---------------------------|  repeat as many times as needed.
||---33-33-33-11-4444--------|

8.FORGIVE ME

Intro - Play 11x
F|------------------------|
C|------------------------|
G|------------------------|
C|-0h2--2-2-2--0h2--2-2-2-|

Chorus - Play 4x
F|-------------------------------|
C|-------------------------------|
G|-------------------------------|
C|-0-2-2-2-2-0-2-2-2-2-0-2-2-2-2-|

Verse - Play 10x
F|------------------------|
C|------------------------|
G|------------------------|
C|-0h2--2-2-2--0h2--2-2-2-|

Chorus - Play 4x
F|-------------------------------|
C|-------------------------------|
G|-------------------------------|
C|-0-2-2-2-2-0-2-2-2-2-0-2-2-2-2-|

Verse - Play 4x
F|------------------------|
C|------------------------|
G|------------------------|
C|-0h2--2-2-2--0h2--2-2-2-|

Chorus - Play 3x
F|-------------------------------|
C|-------------------------------|
G|-------------------------------|
C|-0-2-2-2-2-0-2-2-2-2-0-2-2-2-2-|
                               ^---- Let ring 3rd time through
Outro - Play 3x
F|------------------------------------|
C|------------------------------------|
G|6----------------6------------------|
C|--0-0-6--0-0-3-0---0-0-6--0-0-0h3-0-|

Outro - Play 3x
F|--------------------|
C|--------------------|
G|-666----------------|
C|----000666000333000-|

Outro - Play to the end.
F|------------------------------------|
C|------------------------------------|
G|6----------------6------------------|
C|--0-0-6--0-0-3-0---0-0-6--0-0-0h3-0-|

9.VAMPIRES

Riff 1/Main Riff

G|-----------------------------------------------------------------------------|
D|-----------------------------------------------------------------------------|
A|-----------------------------------------------------------------------------|
D|-0-0--0-3-3--3-5-5---0-0--0-3-3--3-5-5---0-0--0-3-3--3-5-5--6-6-6-666-55-5-5-|

Riff 2

G|-------------------------------------------------------------------------------|
D|-------------------------------------------------------------------------------|
A|-------------------------------------------------------------------------------|
D|-0-0--0-3-3--3-5-5---0-0--0-3-3--3-5-5---0-0--0-3-3--3-5-5---0-0--0-3-3--3-5-5-|


Riff 3

G|----------------------------|
D|----------------------------|
A|----------------------------|
D|-0h3--0h3--0h3--0h3---0-----|

Riff 4

G|--------------------------------------------------|
D|--------------------------------------------------|
A|--------------------------------------------------|
D|-0-0--00333-0-0-0-0--00---------------------------|

Riff 5

G|------------------------------------------------|
D|------------------------------------------------|
A|------------------------------------------------|
D|-3-000--5-00--6--000-33-00----------------------|


Riff 6

G|---------------------|
D|---------------------|
A|---------------------|
D|-33-33-33-33--3-3----|

10.THE JOURNEY

No Bass

11.SPIRAL

========= Section (a) =============
Repeat 6 times
F:-----------------------------|
C:-----------------------------|
G:-----8---------6---------0---|
C:--0-----0--0-------0--0--7---|

F:-----------------------------|
C:-----------------------------|
G:-----8-----------6--5--0-----|
C:--0-----0--0-----------7-----|

F:-----------------------------|
C:-----------------------------|
G:-----8---------6----------0--|
C:--0-----0--0-------0--0---7--|

F:-----------------------------|
C:-----------------------------|
G:-----8-----------6--5--------|
C:--0-----0--0-----------------|

===========End of Section===========


========= Section (b) ==============

F:---------------------------------------|
C:---------------------------------------|
G:---------------------------------------|
C:--5----5----5----1----1----1--1--1--3--|

F:-----------------------------|
C:-----------------------------|
G:-----8-----------6--5--0-----|
C:--0-----0--0-----------7-----|

F:-----------------------------|
C:-----------------------------|
G:-----8-----------6--5--0-----|
C:--0-----0--0-----------7-----|

F:------------------------------------|
C:------------------------------------|
G:------------------1---1-------------|
C:--5----5----5--------------1--0--1--|

===========End of Section==============

Part (c)       Repeat it 3 times
F:-----------------------------|
C:-----------------------------|
G:-----8-----------6--5--0-----|
C:--0-----0--0-----------7-----|

Part (d)
F:-----------------------------|
C:-----------------------------|
G:-----8-----------6--5--------|
C:--0-----0--0-----------------|

F:---------------------|
C:---------------------|
G:--5~-------------5~--|
C:---------------------|


Play Section (a) 5 times
Play Section (b)
Play Part (c) 3 times
Play Part (d)
Play Part (c) 3 times
Play Part (d)
Play Section (a) 4 times
Play Section (b)
Play Part (c) 3 times
Play Part (d)
Play Part (c) 3 times
Play Part (d)


F:------|
C:------|
G:------|
C:--0~--|


Play Part (d)


Part (e)      repeat it 3 times
F:-----------------------------|
C:-----------------------------|
G:-----8-----------6--5--------|
C:--0-----0--0-----------7-----|


Play Part (d)
Play Part (e) 3 times
Play Play Part (d)
Play Part (e) 3 times
Play Part (d)
Play Part (e) 3 times
Play Part (d)

The End
comments
We did not receive enough feedback on this tab! Please rate:
print report bad tab
1 2 3 4 5
I want to post or [tab]
guest
You may want to rate the tab now too:
select rating
Please do not post tabs as comments. Select "correction" instead!