Oops, an error
Loading. Please wait.

Awake Tab

ver1
ver1

Album

Solo

Whole song

More versions @911Tabs.com
31,280 views 45 this week
6 commentsread comments
1 2 3 4 5
excellent!
x 8
add to favorites launch autoscroll
font size
0
reset
Autoscroll
+/-
esc
set tempo
stop
Contributor
WARNING: You are trying to view
                                    content from Ultimate-Guitar.com
                                    in an unauthorized application,
                                    which is prohibited.

                                    Please use an official Ultimate
                                    Guitar Tabs application for iPhone,
                                    iPad or Android to access legitimate
                                    chords, guitar, bass, and drum tabs
                                    from Ultimate-Guitar.com database.

                                    Type "ultimate guitar tabs" in Apple
                                    App Store's or Android Market's
                                    search to find the application.
Band- Godsmack
Album- Awake

1.Sick Of LifeIntro: (after bass)
Guitar 1: x3                          then:
D----------------------------------|-----------------------|
A----------------------------------|-----------------------|
F----------------------------------|-----------------------|
C---3p0-0-0-5p0-0-8p0---0-3p0-0-0--|--3p0-0-0-5p0-0-8p0-0--|
G----------------------------------|-----------------------|
C----------------------------------|-----------------------|

Guitar 2: x3                            then:
D----------------------------------|-----------------------|
A----------------------------------|-----------------------|
F----------------------------------|-----------------------|
C----------------------------------|-----------------------|
G----------------------------------|-----------------------|
C---3p0-0-0-5p0-0-8p0---0-3p0-0-0--|--3p0-0-0-5p0-0-8p0-0--|
					"ARGHHH!!!!!"


Then
Both guitars:
	(part 1) x3		       Then:
D----------------------------------|------------------------------|
A----------------------------------|---------------------*-*-*-*--|
F----------------------------------|---------------------7-5-5-5--|
C----------------------------------|------------------------------|
G---3p0-0-0-5p0-0-8p0---0-3p0-0-0--|--3p0-0-0-5p0-0-8p0-----------|
C---3p0-0-0-5p0-0-8p0---0-3p0-0-0--|--3p0-0-0-5p0-0-8p0-----------|


Repeat part 1
And then play this:
D------------------------|
A------------------------|
F------------------------|
C------------------------|
G---3p0-0-0-5p0-0-8p0-0--|
C---3p0-0-0-5p0-0-8p0-0--|


Verse:
 Part 1:                 Part 2:
D--------------------|----------------------------------|
A--------------------|----------------------------------|
F--------------------|----------------------------------|
C--------------------|----------------------------------|
G---3p0-0-0-5p0-0-0--|---3p0-0-0-5p0-0-8p0---0-3p0-0-0--|
C---3p0-0-0-5p0-0-0--|---3p0-0-0-5p0-0-8p0---0-3p0-0-0--|


Repeat part 1 and 2 (verse)


Part 3:			  Part 4:
D----------------------|-----------------------------------|
A---8-8-8-8------------|---8-8-8-8-------------------------|
F---8-8-8-8------------|---8-8-8-8-------------------------|
C---8-8-8-8------------|---8-8-8-8-------------------------|
G---6-6-6-6--3p0-0-0---|---6-6-6-6--3-0-0-8p0---0-3p0-0-0--|
C------------3p0-0-0---|------------3-0-0-8p0---0-3p0-0-0--|


Repeat Part 3 and 4


Prechorus:
      x3				  Then:
D--------------------------------------|--------------------------|
A--------------------------------------|--------------------------|
F--------------------------------------|--------------------------|
C---------L------L------L------L-------|--------L------L----L-----|
G---0-5--5/6-6--6/8-8--8\6-6--6\5-5-5--|--0-5--5/6-6--6/8--8\6-6--|
C---0-5--5/6-6--6/8-8--8\6-6--6\5-5-5--|--0-5--5/6-6--6/8--8\6-6--|


Chorus: chorus is the intro part where it says both guitars,
but it does not play the riff with the harmonics, but the riff after that


Repeat verse riffs

Prechorus

2 chorus:  play with riff that includes harmonics


Interlude:
Guitar 1:
D------------|
A------------|
F---8-8-8-8--|>Play 4 times then its mixed with 2nd guitar
C---8-8-8-8--|
G---6-6-6-6--|
C------------|

Guitar 2:
play these riffs for awhile (its kind of like the interlude to Keep Away)
D-----------------------------------|-----------------------------------|
A-----------------------------------|-----------------------------------|
F---8-8-8-8-8-8-8-8---8---8-8-8-8-8-|---8-8-8-8-8-8-8-8---8---8-8-8-8-8-|
C---8-8-8-8-------------------------|-----------------------------------|
G---6-6-6-6-6-6-6-6---6---6-6-6-6-6-|---6-6-6-6-6-6-6-6---6---6-6-6-6-6-|
C-----------------------------------|-----------------------------------|


Solo:
D---------------------------------------------------------------------------------|
A---T-----T-----T------T-----T---T---T-----T---T---T---T---T---T---T---T--T-------|
F---0-----5-----0------2-----3---4---5----12---5---4---3---5---3---5---4--3----5^-|
C----------------------*-----*---*---*-----*---*---*---*---*---*---*---*--*-------|
G---------------------------------------------------------------------------------|
C---------------------------------------------------------------------------------|


D-------------------------------
A---(hold bend and strike same note)
F---5^---^---^-^-p3--5-5-3------|
C-------------------------------|
G-------------------------------|
C-------------------------------|

D---8^------8-------------------------------------------------------8^-|
A----------------8^---6---6-8-8^p6--6---6^------6----------6--8-6------|
F-----------------------6----------7--7-----7-5---7----5-7---7---7-----|
C----------------------------------------------------------------------|
G----------------------------------------------------------------------|
C----------------------------------------------------------------------|


repeat chorus

2.Awake

INTRO: x2
Guitar 1: (distortion)
|-----------------------------------|
|--3----3----3--3-------------------|
|--2----2----2--2---3---------------|
|--0----0----0--0---3----1---1------|
|--0----0----0--0---1----1---1------|
|--0----0----0--0--------1---1------|

Intro 2: x2
Guitar 2: (distortion & wah pedal)
These are the chords used. Listen to the song to see how many
times to play them.
|------------------------|
|------------------------|
|--7----3----8-----------|
|--X----X----X-----------|
|--5----1----6-----------|
|------------------------|

Guitars 1&2:

|-----------------| x3             |---------------------------|
|-----------------|                |----------------------8----|
|-----------------|                |----------------12----x----|
|-0---0---0-0-----|   the play:    |-0----0---0-----x--or-5----|
|-0---0---0-0-----|                |-0----0---0-----10---------|
|-0---0---0-0-----|                |-0----0---0----------------|

Guitars 1&2: x1
|---------------------------------------------------------------------|
|---------------------------------------------------------------------|
|--------------7-7-7-8-8-8-8----------------7-7-7-10-10-10-10---------|
|--0--0--0-0---x-x-x-x-x-x-x---0--0--0-0----x-x-x--x--x--x--x---------|
|--0--0--0-0---5-5-5-6-6-6-6---0--0--0-0----5-5-5--8--8--8--8---------|
|--0--0--0-0-------------------0--0--0-0------------------------------|
  (--- play this 3 times --)    (- then play this once ---------------|

Guitars 1&2: x1
|------------------------------------------------------------------|
|------------------------------------------------------------------|
|---------------7-7-7-8-8-8-8---------------7-7-7-8-8-8-8-10-------|
|--0--0--0-0----x-x-x-x-x-x-x---0--0--0-0---x-x-x-x--x--x-x--------|
|--0--0--0-0----5-5-5-6-6-6-6-- 0--0--0-0---5-5-5-6-6-6-6-8--------|
|--0--0--0-0--------------------0--0--0-0--------------------------|
(--- play this 3 times --)       (- then play this once -----------|

Guitars 1&2: x2
|------------------------------------------------|
|------------------------------------------------|
|-----------------------------------3--3---------|
|--0---0------0---0-----0---0----8--3--3---------|
|--0---0------0---0-----0---0----8--1--1---------|
|--0---0------0---0-----0---0----8---------------|


Then intro 1: x2
Then intro 2: x2
Then everything else
Then intro 1: x4
Then intro 2: x4


Guitars 1&2: x3
|---------------------------------------------|
|---------------------------------------------|
|---------------------------------------------|
|---------------------------------------------|
|---------------------------------------------|
|--0-0-0-0---0-0-0-0-0---0-0------------------|
PM........   .........   ...

Then: Listen to song to see how many times to repeat
|---------------------------------------------|
|---------------------------------------------|
|---------------------------------------------|
|-0-0-0-0----0-0-0-0-0----0-0-----------------|
|-0-0-0-0----0-0-0-0-0----0-0-----------------|
|-0-0-0-0----0-0-0-0-0----0-0-----------------|
PM.......    .........    ...

Solo:

Guitar 2:  (using wah pedal)
|----------------------------------------|
|----------------------------------------|
|--7(T)----5(T)--8(T)--5(T)--7(T)--------|
|----------------------------------6(T)--|
|----------------------------------------|
|----------------------------------------|

|---------------------------------10(T)--|
|----------------------------------9(T)--|
|--7(T)----5(T)--8(T)--5(T)--7(T)--------|
|----------------------------------------|
|----------------------------------------|
|----------------------------------------|

|--------------------------------------------------|
|-----------------------------------10-13-10--10---|
|--12^1>12(P)10-12^1~~~~12^1/2--12^1--------12-----|
|--------------------------------------------------|
|--------------------------------------------------|
|--------------------------------------------------|

|-------------10----------------------------------|
|--10-13-10---------------------------------------|
|-----------13---13-12-13(P)12(P)10---10(H)12^1---|
|-----------------------------------12------------|
|-------------------------------------------------|
|-------------------------------------------------|

|-------------------------------13^1---13^1.5>13--|
|--10---------------------------------------------|
|----13-12-10---10-12^1--10~~~--------------------|
|-------------12----------------------------------|
|-------------------------------------------------|
|-------------------------------------------------|

|--10-------------------------------10-----10-----13-------15^1--15^1>15(P)13------|
|----13-10-----------------------/13--13-12--13/15--15(P)13------------------15~~~~|
|---------13-12-10--10-12^1/2--10--------------------------------------------------|
|-----------------12---------------------------------------------------------------|
|----------------------------------------------------------------------------------|
|----------------------------------------------------------------------------------|

Repeat the chorus, then . . .

OUTRO:
Guitars 1&2:
|---------------------------------|
|---------------------------------| repeat
|---------------------------------| 4 times
|--0-0-0-0---0-0-0-0-0---0-0------|
|--0-0-0-0---0-0-0-0-0---0-0------|
|--0-0-0-0---0-0-0-0-0---0-0------|
PM........   .........   ...

3.Greed

Intro(palm-muted w/distortion) Repeat x4
D------------------------------------------------------------------|
A------------------------------------------------------------------|
F------------------------------------------------------------------|
C------------------------------------------------------------------|
G-0--3-0-0--3-0-0-0-0-0-3-0-0-5/6--0--3-0-0--3-0-0-0-0-0-3-0-0-5/6-|
C-0--3-0-0--3-0-0-0-0-0-3-0-0-5/6--0--3-0-0--3-0-0-0-0-0-3-0-0-5/6-|

At the 4th time repeat
D-----------------------------|
A-----------------------------|
F-----------------------------|
C-----------------------------|
G-0--3-0-0--3-0-0-0-0-0-3-0-0-|
C-0--3-0-0--3-0-0-0-0-0-3-0-0-|

For the verse, play the intro riffs

Chorus "Hard to find, how I feel..." Repeat as needed
D----------------------------------------------|
A----------------------------------------------|
F---5/7-7-7\5-5-5/8-8-8----5/7-7-7\5-5-5/8-8-8-|
C-0-5/7-7-7\5-5-5/8-8-8--0-5/7-7-7\5-5-5/8-8-8-|
G-0-3/5-5-5\3-3-3/6-6-6--0-3/5-5-5\3-3-3/6-6-6-|
C-0----------------------0---------------------|

"Especially when you're smothering me...."
D-----------|
A-----------|
F-5-5-5-5-8-|
C-5-5-5-5-8-|
G-3-3-3-3-6-|
C-----------|

Then back to the chorus riffs

"please someone help me..."(2nd chorus: "Ah, you greedy little baby!"
D-------------------|
A-------------------|
F-5-5-5-5-----------|
C-5-5-5-5-----------|
G-3-3-3-3-0-3-3-3-1-|
C---------0-3-3-3-1-|

For the short interlude before the second verse and the second verse, play the intro riffs
Then the chorus

Bridge(repeat x3)Echo: "Hard to find the time, to find the time..."
D---------------------|
A---------------------|
F---------------------|
C-0---------6-6-6-6-3-|
G-0---------6-6-6-6-3-|
C-0---------6-6-6-6-3-|
  ^Let ring

Just before the solo
D-----------|
A-----------|
F---------8-|
C-0-0-0-0-7-|
G-0-0-0-0-6-|
C-0-0-0-0---|
          ^Let ring. Where the singer goes: "Yea, yea, yea..."

For the solo, guitar 1 plays the intro riffs
Solo(guitar 2)w/distortion and wah
D-----------------------------------------------------------------|
A-10-10-x-x-10-10--10--------------------------10-----------------|
F-10-10-x-x-10-10--10--------------10----------10-----------14-14-|
C------------------^trem.pick---12---12-10-12------12-10-12-13-13-|
G-----------------------------------------------------------------|
C-----------------------------------------------------------------|

Solo(continued)
D-10^-10-10^-10----------------------------------13-15-15^-15^-12-15\8-|
A-13^-13-13^-13-10^-10^-10^-10-------------13-15-----------------------|
F---------------12^-12^-12^---13-(13)\0/14-----------------------------|
C----------------------------------------------------------------------|
G----------------------------------------------------------------------|
C----------------------------------------------------------------------|

Solo(continued straight from above)
D-----13-15-15^-13----|
A-/13--------------15-|
F---------------------|bend back and forth
C---------------------|
G---------------------|
C---------------------|

Then the chorus

Outro "greedy little baby..."
D---------------------------------------------------------------------------|
A---------------------------------------------------------------------------|
F-5-5-----------------------------------------------------------------------|
C-5-5-0-3-3-3-1-0--3-0-0--3-0-0-0-0-0-3-0-0-5/6-0--3-0-0--3-0-0-0-0-0-3-0-0-|
G-3-3-0-3-3-3-1-0--3-0-0--3-0-0-0-0-0-3-0-0-5/6-0--3-0-0--3-0-0-0-0-0-3-0-0-|
C-----0-3-3-3-1-0--3-0-0--3-0-0-0-0-0-3-0-0-5/6-0--3-0-0--3-0-0-0-0-0-3-0-0-|
                ^palm-mute from this part on

4.Bad Magick

INTRO/CHORUS:
E|-------------------------------------|
B|-------------------------------------|
G|--5-8-5--111111111111-121212121212---|
D|--5-8-5--x-x-x-x-x-x---x-x-x-x-x-x---|
A|--3-6-3--9-9-9-9-9-9--101010101010---|
D|-------------------------------------|

VERSE:
E|---------------------------------------------------------------------|
B|---------------------------------------------------------------------|
G|---------------------------------------------------------------------|
D|---------------------------------------------------------------------|
A|--3--6--3-----3--3--4---3--6--3---x-x-x--2--3--6--3--3--3--4--3--6--3|
D|--3--6--3-----3--3--4---3--6--3---x-x-x--2--3--6--3--3--3--4--3--6--3|

E|-------------------------------------------------|
B|-------------------------------------------------|
G|-------------------------------------------------|
D|-------------------------------------------------|
A|--3--6--3-----3--3--3--4---3--6--3---x-x-x--2----|
D|--3--6--3-----3--3--3--4---3--6--3---x-x-x--2----|

E|-------------------------------------------------|
B|-------------------------------------------------|
G|-------------------------------------------------|
D|-------------------------------------------------|
A|--3--6--3-----3--3--3--4---3--6--3---x-x-x--2----|
D|--3--6--3-----3--3--3--4---3--6--3---x-x-x--2----|

BRIDGE: PALM MUTED
E|---------------------------------------------------------------------|
B|---------------------------------------------------------------------|
G|---------------------------------------------------------------------|
D|---------------------------------------------------------------------|
A|---------------------------------------------------------------------|
D|-3-3-1-3---3-3-1-3---3-3-1-3---3-3-1-3---3-3-1-3---3-3-1-3---3-3-1-3-|

NOT PALM MUTED
E|------------------------------------------------------------------|
B|------------------------------------------------------------------|
G|------------------------------------------------------------------|
D|------------------------------------------------------------------|
A|--3-3-1-3---3-3-1-3---3-3-1-3---3-3-1-3---3-3-1-3---3-3-1-3-------|
D|--3-3-1-3---3-3-1-3---3-3-1-3---3-3-1-3---3-3-1-3---3-3-1-3-------|

E|----------------------------------------------|
B|----------------------------------------------|
G|----------------------------------------------|
D|----------------------------------------------|
A|--3-3-3-3---6--6--6------6-6-6-6-6-6-6--------|
D|--3-3-3-3---6--6--6------6-6-6-6-6-6-6--------|

Solo:
E|--------------------------------------------------------------------------|
B|--------------------------------------------------------------------------|
G|--16-16-16-15b-16---------------------------------------------------------|
D|-----------------1313131313131314141414141413131313h14141414131313141414--|
A|--------------------------------------------------------------------------|
D|--------------------------------------------------------------------------|

E|------------------------------------------------------------13h15-13p12---|
B|-------------------17b-17-17-17b-17p16h17p14h15h16p15p14p12---------------|
G|--------------------------------------------------------------------------|
D|--1313131414141314--------------------------------------------------------|
A|--------------------------------------------------------------------------|
D|--------------------------------------------------------------------------|

Palm muted
E|------------------------------|
B|------------------------------|
G|------------------------------|
D|------------------------------|
A|------------------------------|
D|-3-3-1-3---3-3-1-3---3-3-1-3--|

5.Goin' Down

Intro/Interlude riff:
E|------------------------------------|
B|------------------------------------|
G|------------------------------------|
D|------------------------------------|
A|------0-3-5-3---------0-3-5-3-------|
D|--0-----------5-3-0-----------5-3---|

Verse riff:
E|------------------|
B|------------------|
G|--7~~~~~~~~(7)\---|
D|--x--------(x)----|
A|--5~~~~~~~~(5)\---|
D|------------------|

Chorus riff 1:
E|------------------------------------|
B|------------------------------------|
G|--7-7-7-7-5-5-5-5-4-4-4-4-3-3-3-3---|
D|--7-7-7-7-5-5-5-5-4-4-4-4-3-3-3-3---|
A|--5-5-5-5-3-3-3-3-2-2-2-2-1-1-1-1---|
D|------------------------------------|

Chorus riff 2:
E|----------------------------------------|
B|----------------------------------------|
G|--7-7-7-7-10-10-10-10-9-9-9-9-8-8-8-8---|
D|--7-7-7-7-10-10-10-10-9-9-9-9-8-8-8-8---|
A|--5-5-5-5--8--8--8--8-7-7-7-7-6-6-6-6---|
D|----------------------------------------|

Interlude Variation:
E|------------------------------|
B|------------------------------|
G|------------------------------|
D|------------------------0-0---|
A|------0-3-5-3-----------0-0---|
D|--0-----------5-3-0-----0-0---|
                       PM - - |

Bridge riff:
E|------------------------------------|
B|------------------------------------|
G|--7-7-7-7-7-7-7-7-5-5-5-5-4-4-4-4---|
D|--7-7-7-7-7-7-7-7-5-5-5-5-4-4-4-4---|
A|--5-5-5-5-5-5-5-5-3-3-3-3-2-2-2-2---|
D|------------------------------------|

6.Mistakes

Intro: 0:44
D|-------------------------------------------|
A|-------------------------------------------|
F|-------------------------------------------|
C|-------------------------------------------| play 6x
G|-------------------------------------------|
C|-15-0-13-0-11-0-13-12---15-0-13-0-11-12----|

Then  1:11
D|-------------------------------------------|
A|-------------------------------------------|
F|-------------------------------------------|
C|-------------------10----------------------|
G|-------------------10-let ring-------------|
C|-15-0-13-0-11-0-13-10----------------------|

Verse 1: 1:17
D|-------------------------------------------|
A|-------------------------------------------|
F|-------------------------------------------|
C|-15-0-13-0-11-0-13-12---15-0-13-0-11-12----|
G|-15-0-13-0-11-0-13-12---15-0-13-0-11-12----|
C|-15-0-13-0-11-0-13-12---15-0-13-0-11-12----|

Verse2 1:32
D|-------------------------------------------|
A|-------------------------------------------|
F|---------------55-33------------------55-33|
C|-0000-0000-000-55-33--0000-0000-000---55-33|play 2x
G|-0000-0000-000-33-11--0000-0000-000---33-11|
C|-0000-0000-000--------0000-0000-000--------|
PM ...  ...  ...        ...  ...  ...

Verse3 1:48
D|-----------------|
A|-----------------|
F|-----------------|
C|-5---------------|
G|-5-Let Ring------|
C|-5---------------|

Verse4 2:37
D|--------------------|
A|--------------------|
F|--------------------|
C|--5555555555556633--|
G|--5555555555556633--|
C|--5555555555556633--|

INTERLUDE:
D|--------------------|
A|--------------------|
F|--------------------|
C|--5555555555556633--|
G|--5555555555556633--|
C|--5555555555556633--|

FILL 3:
D|-------------------|
A|-------------------|
F|-------------------|
C|--1-1111111111111--|
G|--1-1111111111111--|
C|--1-1111111111111--|
PM   ............. (gradually release)

BRIDGE: 3:23
D|--------------------------------------|
A|--------------------------------------|
F|--------------------------------------|
C|--------------------------------------|
G|--------------------------------------|
C|--12-00-13-00-12-00-13-00-12-0-10-12--|

BRIDGE 2:
D|------------------------------------------|
A|------------------------------------------|
F|------------------------------------------|
C|------------------------------------------|
G|------------------------------------------|
C|--12-000-13-000-12-000-13-0-0-12-0-10-12--|
PM .. ... .. ... .. ... .. . . .. . .. ..

FILL 4:
D|------|
A|------|
F|------|
C|--13--|
G|--13--|
C|--13--|

7.Trippin'

VERSE:
|--------------------------------------------|
|--------------------------------------------|
|-----------14-----------14------------------|
|--12-13-12-----12-13-12-----10-13-12-13-12--|
|--------------------------------------------|
|--------------------------------------------|

FILL 1:
|------------|
|------------|
|------------|
|--33333-11--|
|--33333-11--|
|--33333-11--|

BRIDGE:
|--------------------|
|--------------------|
|--------------------|
|--00-00-00-00-0666--|
|--00-00-00-00-0666--|
|--00-00-00-00-0666--|

CHORUS:
|-----------------------------------------------------------|
|-----------------------------------------------------------|
|-----7------8-----------------------------7------8---------|
|--0--7--1-1-8--3-1--00-00-00-00-0666--0-0-7--1-1-8--3-1-0--|
|--0--5--1-1-6--3-1--00-00-00-00-0666--0-0-5--1-1-6--3-1-0--|
|--0-----1-1----3-1--00-00-00-00-0666--0-0----1-1----3-1-0--|

FILL 2:
|-----------------------|
|-----------------------|
|---------9-7---9-10-7--|
|-------7---------------|
|--0--------------------|
|--0--------------------|

SOLO 1:
|--------------------------------------------17---------------------|
|-----10hold\-----5---6-----5\------10----18------6---5---6---5--3--|
|--12-----12\---7---7---7hold\---12----12-----------7---7---7-------|
|-------------------------------------------------------------------|
|-------------------------------------------------------------------|
|-------------------------------------------------------------------|


===========================================================================

Godsmack - trippin
Tuning- low to high C-G-C-F-A-D
Intro                                Right before chorus.
|-----------------------------------|-----------|
|-----------------------------------|-----------|
|--------14----------14-------------|-----------|
|12-13-12----12-13-12----10-12-13-12|3-3-3-3\1-1|
|-----------------------------------|3-3-3-3\1-1|
|-----------------------------------|3-3-3-3\1-1|
Repeat however many times until pre-chorus.

Pre-Chorus
|-----------------------------|------------------------------|
|-----------------------------|------------------------------|
|-----------------------------|------------------------------|
|0-0--0-0--0-0--0-0--0-6-6-6-6|-0-0--0-0--0-0--0-0--0-3-3-3-3|
|0-0--0-0--0-0--0-0--0-6-6-6-6|-0-0--0-0--0-0--0-0--0-3-3-3-3|
|0-0--0-0--0-0--0-0--0-6-6-6-6|-0-0--0-0--0-0--0-0--0-3-3-3-3|
Repeat this again ^ then do this ^.

Chorus
|----0--------------------|
|----3--------------------|
|----2--------------------|
|0-------0--0--1--1-1--1/3|
|0-------0--0--1--1-1--1/3|
|0-------0--0--1--1-1--1/3|
Do again with pre-chorus.

Last part of song before the queit ending.
|----------------------------|
|----------------------------|
|7--7-7--7-7--7-7--7/13-13-13|
|----------------------------|
|5--5-5--5-5--5-5--5/11-11-11|
|----------------------------|

8.Forgive Me

intro (slowly at 70BMP; x4):
D |-------------------0~~|
A |-----------------6~~~~|
F |----------------------|
C |--2-------------------|
G |0h2-222--0h2-222------|
C |0h2-222--0h2-222------|
PM     ***      ***

verse(x7):
D |-------------------0~~|
A |-----------------6~~~~|
F |----------------------|
C |--2-------------------|
G |0h2-222--0h2-222------|
C |0h2-222--0h2-222------|
PM     ***      ***

D |----------------|
A |----------------|
F |----------------|
C |----------------|
G |02222-02222-0222|
C |02222-02222-0222|

chorus(x4):
D |------------------|
A |------------------|
F |---/8--8-7--------|
C |----x--x-x--------|
G |0--/6--6-5--003311|
C |0-----------003311|

pre-verse(x4)
D |-------------------0~~|
A |-----------------6~~~~|
F |----------------------|
C |--2-------------------|
G |0h2-222--0h2-222------|
C |0h2-222--0h2-222------|
PM     ***      ***

verse(x7):
D |-------------------0~~|
A |-----------------6~~~~|
F |----------------------|
C |--2-------------------|
G |0h2-222--0h2-222------|
C |0h2-222--0h2-222------|
PM     ***      ***

D |----------------|
A |----------------|
F |----------------|
C |----------------|
G |02222-02222-0222|
C |02222-02222-0222|

chorus(x4):
D |------------------|
A |------------------|
F |---/8--8-7--------|
C |----x--x-x--------|
G |0--/6--6-5--003311|
C |0-----------003311|

   (x2)
D |------------------|
A |------------------|
F |--/10-10-9--------|
C |----x--x-x--------|
G |2--/8--8-7--225533|
C |2-----------225533|

   (x2)
D |------------------|
A |------------------|
F |---/8--8-7--------|
C |----x--x-x--------|
G |0--/6--6-5--003311|
C |0-----------003311|

  interlude(x4):
D |-------------------0~~|
A |-----------------6~~~~|
F |----------------------|
C |--2-------------------|
G |0h2-222--0h2-222------|
C |0h2-222--0h2-222------|
PM     ***      ***

D |----------------|
A |----------------|
F |----------------|
C |----------------|
G |02222-02222-0222|
C |02222-02222-0222|

chorus(x4):
D |------------------|
A |------------------|
F |---/8--8-7--------|
C |----x--x-x--------|
G |0--/6--6-5--003311|
C |0-----------003311|

   (x2)
D |------------------|
A |------------------|
F |--/10-10-9--------|
C |----x--x-x--------|
G |2--/8--8-7--225533|
C |2-----------225533|

   (x2)
D |------------------|
A |------------------|
F |---/8--8-7--------|
C |----x--x-x--------|
G |0--/6--6-5--003311|
C |0-----------003311|

D |--------|
A |--------|
F |--------|
C |--------|
G |0~~~~~~~|
C |0~~~~~~~|

interlude 2(slightly faster; x2):
D |-----------------|  |-------------------|
A |-----------------|  |-------------------|
F |-----------------|  |-------------------|
C |6----------------|  |6------------------|
G |6--0-0-6--0-0-3-0|  |6--0-0-6--0-0-0h3-0|
C |---0-0-6--0-0-3-0|  |---0-0-6--0-0-0h3-0|

   (x4)
D |-----------------|
A |-----------------|
F |-----------------|
C |666--------------|
G |666-0006660003300|
C |----0006660003300|
PM *****************

D |-----------------|  |-------------------|
A |-----------------|  |-------------------|
F |-----------------|  |-------------------|
C |6----------------|  |6------------------|
G |6--0-0-6--0-0-3-0|  |6--0-0-6--0-0-0h3-0|
C |---0-0-6--0-0-3-0|  |---0-0-6--0-0-0h3-0|

D |-----------------|  |-------------------|
A |-----------------|  |-------------------|
F |-----------------|  |-------------------|
C |6----------------|  |6------------------|
G |6--0-0-6--0-0-3-0|  |6--0-0-6--0-0-0h3-0|
C |---0-0-6--0-0-3-0|  |---0-0-6--0-0-0h3-0|

   (x4)
D |-----------------| |--------------|
A |-----------------| |--------------|
F |-----------------| |--------------|
C |666--------------| |--------------|
G |666-0006660003300| |--------------|
C |----0006660003300| |0vvvvvvvvvvvvv|
PM *****************   (dive with bar)

   v-----------------x4----------------------|v
D |-----------------|  |---------------------|
A |-----------------|  |---------------------|
F |-----------------|  |---------------------|
C |6----------------|  |6--------------------|
G |6--0-0-6--0-0-3-0|  |6--0-0-6--0-0-0h3-0--|
C |---0-0-6--0-0-3-0|  |---0-0-6--0-0-0h3-0--|

D |--------|
A |--------|
F |--------|
C |1~~~~~~~|
G |1~~~~~~~|
C |1~~~~~~~|

9.Vampires

REPEAT 3X
E-----------------------------------------------------------------------------------------------]
B-----------------------------------------------------------------------------------------------]
G-----------------------------------------------------------------------------------------------]
D--0--0--0/3--3--0/5--5------0--0--0/3--3--0/5--5------0--0--0/3--3--0/5--5---6-6-6-6-6-5-5-5\\-]
A--0--0--0/3--3--0/5--5------0--0--0/3--3--0/5--5------0--0--0/3--3--0/5--5---6-6-6-6-6-5-5-5\\-]
D--0--0--0/3--3--0/5--5------0--0--0/3--3--0/5--5------0--0--0/3--3--0/5--5---6-6-6-6-6-5-5-5\\-]


REPEAT 4X                         THEN LET RING            (BEND)
E-------------------------]        [-------]              [------]
B-------------------------]        [-------]              [------]
G-------------------------]        [-------]              [------]
D--0--0--0/3--3--0/5--5---]        [---0---]              [------]
A--0--0--0/3--3--0/5--5---]        [---0---]              [------]
D--0--0--0/3--3--0/5--5---]        [---0---]              [--12--]

(SLIDE)

E-------------------------------------------------------------------------------]
B-------------------------------------------------------------------------------]
G-------------------------------------------------------------------------------]
D-------0-0--0/3--3--0/5--5------0--0--0/3--3--0/5--5------0--0--0/3--3--0/5--5-]
A--12\\-0-0--0/3--3--0/5--5------0--0--0/3--3--0/5--5------0--0--0/3--3--0/5--5-]
D--12\\-0-0--0/3--3--0/5--5------0--0--0/3--3--0/5--5------0--0--0/3--3--0/5--5-]

----------------------------------]
----------------------------------]
----------------------------------]
--6-6-6-6-6-5-5-5\\---------------]
--6-6-6-6-6-5-5-5\\---------------]
--6-6-6-6-6-5-5-5\\---------------]


E--------------------------------------------------------------------------]
B--------------------------------------------------------------------------]
G--------------------------------------------------------------------------]
D--0--0--0/3--3--0/5--5---0--0--X-X--0/3--3--0/5--5---0--0--0/3--3--0/5--5-]
A--0--0--0/3--3--0/5--5---0--0--X-X--0/3--3--0/5--5---0--0--0/3--3--0/5--5-]
D--0--0--0/3--3--0/5--5---0--0--X-X--0/3--3--0/5--5---0--0--0/3--3--0/5--5-]

---------------------------------------]
---------------------------------------]
---------------------------------------]
--0--0--X-X-0/3-3-0/3-3-0/3-3-0/3-3--0-]
--0--0--X-X-0/3-3-0/3-3-0/3-3-0/3-3--0-]
--0--0--X-X-0/3-3-0/3-3-0/3-3-0/3-3--0-]


                                                                                         
                      ^
                                                                                         
                  LET RING

E----------------------]
B----------------------]
G----------------------]
D--0-0--0--0-3-0-3-0---]
A--0-0--0--0-3-0-3-0---]
D--0-0--0--0-3-0-3-0---]

                                                                 LET RING
                                 REPEAT 6X                          v
E-------------------]  [---------------------------------]  [----------------------------]
B-------------------]  [---------------------------------]  [---3---1--------------------]
G-------------------]  [---------------------------------]  [---2---0--------------------]
D---0-0--0-0-3-0-3--]  [---0-0--0-0--0-0-0-0--0-0-3-0-3--]  [-----------0-0--0-0-3-0-3---]
A---0-0--0-0-3-0-3--]  [---0-0--0-0--0-0-0-0--0-0-3-0-3--]  [-----------0-0--0-0-3-0-3---]
D---0-0--0-0-3-0-3--]  [---0-0--0-0--0-0-0-0--0-0-3-0-3--]  [-----------0-0--0-0-3-0-3---]


                                                     REPEAT 3X
E-------------------------------------]  [---------------------------------]  
B-------------------------------------]  [---------------------------------]  
G-------------------------------------]  [---------------------------------]  
D-------------------------------------]  [---------------------------------]  
A-------------------------------------]  [---------------------------------]  
D---1-1-1-1-1-1-1-1-1-1-1-1-1-1-1-1---]  [--1-0-0-0-3-0-0-6-0-0-0-1-0-0-0--]  

[------------------------------]
[------------------------------]
[------------------------------]
[------------------------------]
[---1-1--1-1--1-1--1-1--1--1---]
[---1-1--1-1--1-1--1-1--1--1---]


            REPEAT 3X
E---------------------------------]  [------------------------------]
B---------------------------------]  [------------------------------]
G---------------------------------]  [------------------------------]
D---------------------------------]  [------------------------------]
A---------------------------------]  [---1-1--1-1--1-1--1-1--1--1---]
D--1-0-0-0-3-0-0-6-0-0-0-1-0-0-0--]  [---1-1--1-1--1-1--1-1--1--1---]


            REPEAT 3X
E---------------------------------]  [---------------------------------]
B---------------------------------]  [---------------------------------]
G---------------------------------]  [---------------------------------]
D---------------------------------]  [-------------------X-X-X--0--0---]
A---------------------------------]  [-------------------X-X-X--0--0---]
D--1-0-0-0-3-0-0-6-0-0-0-1-0-0-0--]  [---1-0-0-0-3-0-0-6-X-X-X--0--0---]

            REPEAT 3X
E---------------------------------]  [---------------------------------]
B---------------------------------]  [---------------------------------]
G---------------------------------]  [---------------------------------]
D---------------------------------]  [-------------------X-X-X--0--0---]
A---------------------------------]  [-------------------X-X-X--0--0---]
D--1-0-0-0-3-0-0-6-0-0-0-1-0-0-0--]  [---1-0-0-0-3-0-0-6-X-X-X--0--0---]

                           REPEAT 2X
E-------------------------------------------------------------------]  
B-------------------------------------------------------------------]  
G-------------------------------------------------------------------]  
D-------------------X-X-X--0--0----------------------X--0--0---X-X--]  
A-------------------X-X-X--0--0----------------------X--0--0---X-X--]  
D---1-0-0-0-3-0-0-6-X-X-X--0--0------1-0-0-0-3-0-0-6-X--0--0---X-X--]  

[-------------------------------------]
[-------------------------------------]
[-------------------------------------]
[--0-0--X-X--0-0--X-X--0-0--X-X----0--]
[--0-0--X-X--0-0--X-X--0-0--X-X----0--]
[--0-0--X-X--0-0--X-X--0-0--X-X----0--]




REPEAT 2X
E---------------------------------------------------------------------------------------------------]
B---------------------------------------------------------------------------------------------------]
G---------------------------------------------------------------------------------------------------]
D-------0-0--0/3--3--0/5--5------0--0--0/3--3--0/5--5------0--0--0/3--3--0/5--5---6-6-6-6-6-5-5-5\\-]
A--12\\-0-0--0/3--3--0/5--5------0--0--0/3--3--0/5--5------0--0--0/3--3--0/5--5---6-6-6-6-6-5-5-5\\-]
D--12\\-0-0--0/3--3--0/5--5------0--0--0/3--3--0/5--5------0--0--0/3--3--0/5--5---6-6-6-6-6-5-5-5\\-]
 (SLIDE)


E-----------------------------------------------------------------------------]
B-----------------------------------------------------------------------------]
G-----------------------------------------------------------------------------]
D--0--0--0/3--3--0/5--5------0--0--0/3--3--0/5--5------0--0--0/3--3--0/5--5---]
A--0--0--0/3--3--0/5--5------0--0--0/3--3--0/5--5------0--0--0/3--3--0/5--5---]
D--0--0--0/3--3--0/5--5------0--0--0/3--3--0/5--5------0--0--0/3--3--0/5--5---]

10.The Journey

------14---17--15--14-----14--17--15--14--12--14-----------------|
-----------------------------------------------------------------|
-----------------------------------------------------------------|
-----------------------------------------------------------------|
-----------------------------------------------------------------|
-----------------------------------------------------------------|

11.Spiral

Intro(palm-muted)w/distortion
D-------------------------------------|
A-------------------------------------|
F-------------------------------------|
C-------------------------------------|
G------------------0----------------0-|
C-0-15-0-0-13-12-0---0-15-0-0-13-12---|

Intro(continued)
D-----------------------------------|
A-----------------------------------|
F-----------------------------------|
C-----------------------------------|
G------------------0----------------|
C-0-15-0-0-13-12-0---0-15-0-0-13-12-|

Verse is the same as intro

Chorus "I feel rain pouring down....."
D-----------------------------------------|
A-----------------------------------------|
F-----------------------------------------|
C-5-5-5-1-1-1-0-10-00-8-7-6-0-10-00-8-7-6-|
G-5-5-5-1-1-1-0-8--00-6-5-6-0-8--00-6-5-6-|
C-5-5-5-1-1-1-0----00-----6-0----00-----6-|

Chorus(continued) "I wait to rot, rot away..."
D-----------------------------|
A-----------------------------|
F-----------------------------|
C-5-5/8-8-8\1-1-0-10-00-8-7-6-|
G-5-5/8-8-8\1-1-0-8--00-6-5-6-|
C-5-5/8-8-8\1-1-0----00-----6-|
                I-------------|I. repeat this part 4 times in the first chorus
                                second chorus repeat 9 times

Then the verse
Then the chorus

Guitar 1 then plays the intro riffs

Solo(guitar 2) w/partly clean tone. Repeat x4
D-----------------------------------------------------------------|
A---10---11-10-11-10-------10---13-10-11-10-------10--------------|
F--------------------12---------------------12--------10-9-10-9-7-|
C-0---0------------------0---0------------------0---0-------------|
G-----------------------------------------------------------------|
C-----------------------------------------------------------------|

Solo(continued straight from above)
D--------------|
A--------------|
F-9-7---7\5--7-|
C-0---0-0------|
G--------------|
C--------------|

ENJOY!!!!!
comments
print report bad tab
6 comments total. Showing first comments.
0 reply
JustinDx17 wrote on August 24 2005, 12:00 am

holy crap that musta taken a long time! Awesome tab

0 reply
goddddddddddd wrote on May 10 2006, 04:36 pm

whats the tuning?

0 reply
badguitarist13 wrote on November 11 2006, 09:50 pm

hello......................................................... look at the tab it says CGCFAD (654321)

I want to post or [tab]
guest
You may want to rate the tab now too:
select rating
Please do not post tabs as comments. Select "correction" instead!